Cifra Club

Black Friday Cifra Club

Nada Mudou (part. Maiara e Maraisa)

Marília Mendonça

Cifra: Principal (violão e guitarra)
tom: C
[Intro] C  G  C  G 

[Tab - Intro]

Parte 1 de 3

E|--12---12---12----13-12--10----10----10----12-10----|
B|----13---13---13---------12----12----12-------------|
G|----------------------------------------------------|
D|----------------------------------------------------|
A|----------------------------------------------------|
E|----------------------------------------------------|

Parte 2 de 3

E|--12---12---12----13-12--10----10----10----12-10----|
B|----13---13---13---------12----12----12-------------|
G|----------------------------------------------------|
D|----------------------------------------------------|
A|----------------------------------------------------|
E|----------------------------------------------------|

Parte 3 de 3

E|-------12-------------------------------------------|
B|-------13-------------------------------------------|
G|----------------------------------------------------|
D|----------------------------------------------------|
A|----------------------------------------------------|
E|----------------------------------------------------|

             C
Falo que passou, digo que acabou
               F        G
Mas dentro de mim nada mudou
                              C
Falo que esqueci, não é bem assim
              G                  C
Tem muito de nós aqui dentro de mim

         C
Fala que passou, diz que acabou
              F        G
Mas dentro de ti nada mudou
                                    C
Fala que esqueceu, que não quer me ver
              G              C  C7
Tem muito de nós dentro de você

 F                                  G
Segue a vida com outro pensando em mim
 F                                 G
Sigo com outra na vida pensando em ti
              C                   G               C
Saiba que te quero eu morro de saudade sem você aqui
               G               C
Eu morro de saudade sem você aqui

[Solo] C  G  C  G

[Tab - Solo]

Parte 1 de 3

E|--12---12---12----13-12--10----10----10----12-10----|
B|----13---13---13---------12----12----12-------------|
G|----------------------------------------------------|
D|----------------------------------------------------|
A|----------------------------------------------------|
E|----------------------------------------------------|

Parte 2 de 3

E|--12---12---12----13-12--10----10----10----12-10----|
B|----13---13---13---------12----12----12-------------|
G|----------------------------------------------------|
D|----------------------------------------------------|
A|----------------------------------------------------|
E|----------------------------------------------------|

Parte 3 de 3

E|-------12-------------------------------------------|
B|-------13-------------------------------------------|
G|----------------------------------------------------|
D|----------------------------------------------------|
A|----------------------------------------------------|
E|----------------------------------------------------|

         C
Falo que passou, digo que acabou
               F        G
Mas dentro de mim nada mudou
                              C
Falo que esqueci, não é bem assim
              G                  C
Tem muito de nós aqui dentro de mim

         C
Fala que passou, diz que acabou
              F        G
Mas dentro de ti nada mudou
                                    C
Fala que esqueceu, que não quer me ver
              G              C  C7
Tem muito de nós dentro de você

 F                                  G
Segue a vida com outro pensando em mim
 F                                 G
Sigo com outra na vida pensando em ti
              C                   G             C
Saiba que te quero eu morro de saudade sem você aqui
               G             C
Eu morro de saudade sem você aqui
               G              C
Eu morro de saudade, sem você aqui
00:00 / 00:00
Outros vídeos desta música
Repetir
Outros vídeos desta música
Composição de Paulino
Colaboração e revisão:
  • Pietro Henrique"
6.228 exibições
    • ½ Tom
    • A
    • Bb
    • B
    • C
    • Db
    • D
    • Eb
    • E
    • F
    • F#
    • G
    • Ab
  • Adicionar à lista

    0 comentários

    Ver todos os comentários

    Conseguiu tocar?

    2 Tocaram 0 Ainda não

    Grave um vídeo tocando Nada Mudou (part. Maiara e Maraisa) e nos envie!

    Entre para oCifra Club PRO

    Tenha acesso a benefícios exclusivos no App e no Site

    • Chega de anúncios

    • Prioridade de compra em lançamentos

    • Mais recursos no app do Afinador

    • Atendimento Prioritário

    • Descontos nos produtos Cifra Club

    • Ajude a produzir mais conteúdo

    00:00 / 00:00

    Cifra Club Pro

    Aproveite o Cifra Club com benefícios exclusivos e sem anúncios
    Cifra Club Pro
    Aproveite o Cifra Club com benefícios exclusivos e sem anúncios
    OK