Cifra Club

The Flowers Of Evil

Marilyn Manson

Cifra: Principal (violão e guitarra)
exibições 118
Tom:
Verse
   e|---------------------|
   B|---------------------|
   G|---------------------|
   D|---------------------|
   A|---------------------|
   D|--0-0-12-0-0-12-0-0--|

   Bassline
   A|-----------------------|-----------------------|-----------------------|----------------------|
   D|--12--12--12-12-10-12--|------12--12-12-10-12--|------12--12-12-10-12--|------12-12-15-15-15--|

   Chorus
   e|--------------|
   B|--------------|
   G|--7--10-5--4--|
   D|--7--10-5--4--|
   A|--5--8--3--2--|
   D|--------------|
   Hit each note 8 times
Acordes para:
    Colaboração e revisão:
    • Luiz Rocha

    0 comentários

      mostrar mais comentários

      Conseguiu tocar?

      0tocaram0ainda não

      Grave um vídeo tocando The Flowers Of Evil e mande pra gente!

      00:00 / 00:00
      outros vídeos desta música
      repetirqualidadeAutomático
      Outro vídeos desta música
        00:00 / 00:00
        OK