Cifra Club

Aprenda

Pedacim de Noite

Matheus e Kauan

Cifra: Principal (violão e guitarra)
Tom: Am
[Intro] F  G  Am7

(Violão 1)

   F        G          Am7
E|----------------------------------------------------|
B|-1-1------1h3--1h3---5~----------5h6p5---6/8/6p5----|
G|----------0----0-----5~----------5h7p5---7/9/7p5----|
D|-3-3------------------------------------------------|
A|----------------------------------------------------|
E|----------------------------------------------------|

(Violão 2 - Capotraste 5ª casa)

   F        G          Am7
E|-----0----------------------------------------------|
B|-------3--3---3------3------------------------------|
G|----------0h2-0h2-----------------------------------|
D|---2------------------------------------------------|
A|-3--------------------------------------------------|
E|----------------------------------------------------|

(Violão 1)

   F        G          Am7
E|----------------------------------------------------|
B|-1-1------1h3--1h3---1-------3h5p3p1----------------|
G|----------0----0-----2------------------------------|
D|-3-3------------------------------------------------|
A|----------------------------------------------------|
E|----------------------------------------------------|

(Violão 2 - Capotraste 5ª casa)

   F        G          Am7
E|-----0----------------------------------------------|
B|-------3--3---3--------------3----------------------|
G|----------0h2-0h2----0--------------------0---------|
D|---2----------------------------------3h5---5p3p0---|
A|-3--------------------------------------------------|
E|----------------------------------------------------|

[Primeira Parte]

    Am7
Eu sei, você deixou bem claro
         F
Que era só mais um encontro avulso
           C
Ninguém aqui queria sentimento
       G
Mas a gente mandou bem no escuro

               F
Como é que eu vou se quero ficar?
            G
Como é que fica se preciso ir?
            Am7
Me diz como é que eu vou me levantar
                 
Dessa cama e sair

[Pré-Refrão]

               F
Se o problema dorme aqui
               G
Se o problema dorme aqui?

[Refrão]

               F
Bastou um pedacinho de noite
              G
Pra me apaixonar
                   Am7
Cê fez amor de um jeito que eu vou
            C
Mas vou voltar

                F
Já tô passando aí
                             G
Perdoa a minha falta de atenção
                 Am7
Esqueci meu coração

               F
Bastou um pedacinho de noite
              G
Pra me apaixonar
                   Am7
Cê fez amor de um jeito que eu vou
            C
Mas vou voltar

                F
Já tô passando aí
                             G
Perdoa a minha falta de atenção
                 Am7  G/B  C9
Esqueci meu coração

[Solo] F  G  C  G/B  Am7

[Primeira Parte]

    Am7
Eu sei, você deixou bem claro
         F
Que era só mais um encontro avulso
           C
Ninguém aqui queria sentimento
       G
Mas a gente mandou bem no escuro

               F
Como é que eu vou se quero ficar?
            G
Como é que fica se preciso ir?
            Am7
Me diz como é que eu vou me levantar
                 
Dessa cama e sair

[Pré-Refrão]

               F
Se o problema dorme aqui
               G
Se o problema dorme aqui?

[Refrão]

               F
Bastou um pedacinho de noite
              G
Pra me apaixonar
                   Am7
Cê fez amor de um jeito que eu vou
            C
Mas vou voltar

                F
Já tô passando aí
                             G
Perdoa a minha falta de atenção
                 Am7
Esqueci meu coração

               F
Bastou um pedacinho de noite
              G
Pra me apaixonar
                   Am7
Cê fez amor de um jeito que eu vou
            C
Mas vou voltar

                F
Já tô passando aí
                             G
Perdoa a minha falta de atenção
                 Am7  G/B  C9
Esqueci meu coração

[Final] G  F  Am7
Composição de Alvino Alves / Diego Silveira / Henrique Casttro / Marcia Araújo
Colaboração e revisão:
  • Getúlio Vasconcelos
  • P4ULUK
  • kelven ferreira
14.645 exibições
    • ½ Tom
    • Am
    • Bbm
    • Bm
    • Cm
    • C#m
    • Dm
    • Ebm
    • Em
    • Fm
    • F#m
    • Gm
    • G#m
  • Adicionar à lista

    0 comentários

    Mostrar mais comentários

    Conseguiu tocar?

    1 Tocaram 0 Ainda não

    Grave um vídeo tocando Pedacim de Noite e mande pra gente!

    00:00 / 00:00
    outros vídeos desta música
    repetir qualidade Automático
    Outros vídeos desta música
    00:00 / 00:00
    Automático

    Cifra Club Pro

    Aproveite o Cifra Club com benefícios exclusivos e sem anúncios
    7 dias grátis
    Cifra Club Pro
    Aproveite o Cifra Club com benefícios exclusivos e sem anúncios
    7 dias grátis
    OK