Cifra Club

And Justice For All

Metallica

Cifra: Principal
exibições 134.910
Tom: E
[Intro]

E|-----------------------------------------------|
B|-----------------------------------------------|
G|.----------------------------------------------|
D|.-6-7-9--7-6h7p6-4-5-5-4-7-4-2-3-5---3-2h3p2---|
A|--7------7---------5-----5---5-3-----3---------|
E|-----------------------------------------------|
                          
E|-----------------------------------------------|
B|-----------------------------------------------|
G|-----------------------2-----------------------|
D|-0-2-2-0-2-0-0-2-2-0-2---3---------------------|
A|-2-----2---2-1-----1-----1---------------------|
E|-----------------------------------------------|

[Riff 1]

E|------------------------------|--------------------------|
B|-.----------------------------|--------------------------|
G|-3----.-.----.-.-.----.-.-.-.-|-5-3-2---3-2-----2--------|
D|-3----8-7----8-7-6----8-7-6-5-|-5-3-2-5-3-2-5-3-2-5-3-2--|
A|-1----8-7----8-7-6----8-7-6-5-|-------5-----5-3---5-3-2--|
E|------6-5----6-5-4----6-5-4-3-|--------------------------|

E|---------------------------------------------------------|
B|---------------------------------------------------------|
G|--2------------------------------------------------------|
D|--2--5--3--2----5-3-2---2--------------------------------|
A|-----5--3--2----5-3-2-5-2-5-3-2--------------------------|
E|----------------------5---5-3-2--------------------------|

[Riff 2] 
                                                        (4x)
E|--------------------------------|-----------------------------------|
B|--------------------------------|-----------------------------------|
G|--------------------------------|.---------------------------------.|
D|-2------------------------(2)---|.-(2)-------------------------(2)-.|
A|-2------------------------(2)---|--(2)-------------------------(2)--|
E|-0------------------------(0)---|--(0)-------------------------(0)--|

[Riff 3]

E|------------------------------------------------|
B|------------------------------------------------|
G|-.-.----.-.------------------.-.----------------|
D|-8-8-7--8-8-7---------------8-8-7---------------|
A|-8-8-7--8-8-7----5h7-7-5----8-8-7----5h7-7-5----|
E|-6-6-5--6-6-5--0---------7--6-6-5--0---------7--|


[Riff 3b]
E|--------------------------------------------------------------|
B|--------------------------------------------------------------|
G|-11--11--11--9-------------11--11--11--9----------------7-----|
D|----------------10--10--9----------------10--10--7--10-----9--|
A|--------------------------------------------------------------|
E|--------------------------------------------------------------|

Riff 4:
E|-------------------------|-----------|-----------|-----------|
B|-------------------------|-----------|-----------|-----------|
G|-.-.----.-.--------------|-2---------|-----------|-2---------|
D|-8-8-7--8-8-7--2---------|-2---------|-2---------|-2---------|
A|-8-8-7--8-8-7--2---------|-0---------|-2---------|-0---------|
E|-6-6-5--6-6-5--0---------|-----------|-0---------|-----------|

(Riff 3 - 2x)

Riff 5:
E|-------------------------------------------------|
B|-------------------------------------------------|
G|-.-.----.-.------.----.--------------.----.------|
D|-8-8-7--5-5-4----2--x-2-2-------3----2--x-2--2---|
A|-8-8-7--5-5-4--.-2--x-2-2---.-.-3--.-2--x-2--2---|
E|-6-6-5--3-3-2--0-0--x-0-0---0-0-1--0-0--x-0--0---|

E|---------------------------------------------------------------|
B|---------------------------------------------------------------|
G|-.-.----.-.------.----.--------------.----.------.-.----.-.----|
D|-8-8-7--8-8-7----2--x-2-2-------3----2--x-2--2---8-8-7--8-8-8\-|
A|-8-8-7--8-8-7--.-2--x-2-2---.-.-3--.-2--x-2--2---8-8-7--8-8-8\-|
E|-6-6-5--6-6-5--0-0--x-0-0---0-0-1--0-0--x-0--0---6-6-5--6-6-6\-|

[Verso 1]

Riff 6 - 4x:
E|-------------------------------------------------|
B|-------------------------------------------------|
G|--------.-------------------.------.-.----.-.----|
D|---2--x-2-2-------3----2--x-2--2---8-8-7--8-8-7--|
A|-.-2--x-2-2---.-.-3--.-2--x-2--2---8-8-7--8-8-7--|
E|-0-0--x-0-0---0-0-1--0-0--x-0--0---6-6-5--6-6-5--|

E|-----------------------------|
B|-----------------------------|
G|-----------------------------|
D|-----------------------------|
A|-7-7-7-5-5-5-----------------|
E|-0-0-0-3-3-3-----------------|

E|-------------------------------|------------------------------------|
B|-------------------------------|------------------------------------|
G|.-----------------------------.|--------------0h5h7-----------------|
D|.-3-------------4\3---4/5-4/5-.|-3-----------------0h5h7------------|
A|--3-------------4\3---4/5-4/5--|-3----------------------0h5h7-0h2h3-|
E|--1-1-1-1-1-1-1-2\1-0-2/3-2/3--|-1-1-1-1-1-1-1----------------------|

                             (3x)
E|-------------------------------|------------------------------------|
B|-------------------------------|------------------------------------|
G|.-----------------------------.|--------------0h5h7-----------------|
D|.-3-------------4\3---4/5-4/5-.|-3-----------------0h5h7------------|
A|--3-------------4\3---4/5-4/5--|-3----------------------0h5h7-0h2h3-|
E|--1-1-1-1-1-1-1-2\1-0-2/3-2/3--|-1-1-1-1-1-1-1----------------------|

E|-------------------------------------------------------|
B|-------------------------------------------------------|
G|-0h5h7-------------------------------------------------|
D|------0h5h7------------4-2--------------4\3---4/5-4/5--|
A|-----------0h5h7-0h2h3-4-2--------------4\3---4/5-4/5--|
E|-----------------------2-0--0-0-0-0-0-0-2\1-0-2/3-2/3--|

Refrão:

Riff 8:
E|-------------------------------------------------|
B|-------------------------------------------------|
G|--2----4----5------------------------------------|
D|--2----4----5----4-2--------------4\3---4/5-4/5--|
A|--0----2----3----4-2--------------4\3---4/5-4/5--|
E|-----------------2-0--0-0-0-0-0-0-2\1-0-2/3-2/3--|

E|------------------------------------------|-------------------------|
B|------------------------------------------|-------------------------|
G|-2----4-----------------------------------|-2----4----0----5--------|
D|-2----4----4-2--------------4\3---4/5-4/5-|-2----4----0----5----2---|
A|-0----2----4-2--------------4\3---4/5-4/5-|-0----2---------3----2---|
E|-----------2-0--0-0-0-0-0-0-2\1-0-2/3-2/3-|-----------3---------0---|

(Riff 3 - 2x)

(Riff 5)

(Verso)

(Refrão)

(Riff 3 - 2x)

(Riff 1)

(Riff 2)

(Solo)

(Riff 7)

(Riff 6)

Riff 6 - 3x:
E|--------------------------------------------------------------------|
B|--------------------------------------------------------------------|
G|--------------------------------------------------------------------|
D|-8-8-7--8-8-7--7-7-6--7-7-6--6-6-5--6-6-5--5-5-4--5-5-4--3-4-4-4-4--|
A|-8-8-7--8-8-7--7-7-6--7-7-6--6-6-5--6-6-5--5-5-4--5-5-4--3-4-4-4-4--|
E|-6-6-5--6-6-5--5-5-4--5-5-4--4-4-3--4-4-3--3-3-2--3-3-2--1-2-2-2-2--|

Intro 5x:
                                                                  (3x)
E|--------------------------------------------------|-----------------|
B|--------------------------------------------------|-----------------|
G|------.-.---.-----.-.---.-----.-.---.-----.-.---.-|.-----.-.---.---.|
D|--6---6-6-6-6-4---4-4-4-4-2---2-2-2-2-0---0-0-0-0-|.-0---0-0-0-0---.|
A|--7---7-7-7-7-5---5-5-5-5-3---3-3-3-3-2---2-2-2-2-|--1---1-1-1-1----|
E|--------------------------------------------------|-----------------|
                                              (2x)
E|--------------------|---------------------------|
B|--------------------|---------------------------|
G|--------------------|.-------------------------.|
D|--2------------(2)--|.-(2)-----------------(2)-.|
A|--2------------(2)--|--(2)-----------------(2)--|
E|--0------------(0)--|--(0)-----------------(0)--|

Riff 3 - 2x:
E|--------------|
B|--------------|
G|-.-.----.-.---|
D|-8-8-7--2-2-3-|
A|-8-8-7--2-2-3-|
E|-6-6-5--0-0-1-|

(Verso)

(Refrão)

(Riff 4)

(Riff 8)

(Riff 4)

E|---------|---------|---------|---------|---------|
B|---------|---------|---------|---------|---------|
G|-7-------|-5-------|---------|---------|-.-.-.---|
D|-7-------|-5-------|-7-------|-5-------|-5-4-2---|
A|-5-------|-3-------|-7-------|-5-------|-5-4-2---|
E|---------|---------|-5-------|-3-------|-3-2-0---|

E|---------|---------|---------|---------|
B|---------|---------|---------|---------|
G|---------|-5-------|---------|-.-.-.---|
D|-5-------|-5-------|-7-------|-5-4-2---|
A|-5-------|-3-------|-7-------|-5-4-2---|
E|-3-------|---------|-5-------|-3-2-0---|

E|---------|---------|---------|---------|
B|---------|---------|---------|---------|
G|---------|-.-.-.---|---------|-.-.-.---|
D|-5-------|-5-4-2---|---------|-5-4-2---|
A|-5-------|-5-4-2---|---------|-5-4-2---|
E|-3-------|-3-2-0---|---------|-3-2-0---|

Solo:
E|-------------------------------------------------------------------------------------------------|
B|---------------------------------------8---7-----------------------------------------------------|
G|----------------------0h5h7--------9-------------9------7----5-------4--4----------4--5p4--------|
D|---------------0h5h7-----------9-----------------------------------------------------------7-----|
A|--0h2h3-0h5h7------------------------------------------------------------------------------------|
E|-------------------------------------------------------------------------------------------------|

E|-------------------------------------------------------------------------------------------------|
B|----------------------------------------8---7----------------------------------------------------|
G|--4----------------------------------9-----------9------7----5-------4--4-------4--5p4-----------|
D|------7-----5----3---3h5p3--2-----9-----------------------------------------------------2s3------|
A|-------------------------------------------------------------------------------------------------|
E|-------------------------------------------------------------------------------------------------|

E|---------------------------------------------------------------------------------------------------------|
B|-----8--7------5----7p5p3---------9h10--8---7----8p7p5-------12-----12p10p8---12p10p8---12p10p8---10p8p7-|
G|---9---------------------------9---------------------------9---------------------------------------------|
D|-9--------------------------9----------------------------9-----------------------------------------------|
A|---------------------------------------------------------------------------------------------------------|
E|---------------------------------------------------------------------------------------------------------|

E|-------------------------------------------------------------------------------------------------------|
B|-------------------------------------------------------------------------------------------------------|
G|-11p9p7--11p9p7--11p9p7s5--9p7p5------0h5h7---------------------0h5h7----------------------------------|
D|--------------------------------------------0h5h7---------------------0h5h7----------------8-8-7-8-8-7-|
A|--------------------------------------------------0h5h7--0h2h3--------------0h5h7--0h2h3---8-8-7-8-8-7-|
E|-------------------------------------------------------------------------------------------6-6-5-6-6-5-|

E|-----------------------14----17b-------------17--14-------17p14--17p14----19p14---20p14-20p14----19p14-17--17p14----|
B|-17b--14------------------14-------------------------------------------17---------------------17--------------------|
G|-16b--14------14-16b------------------------------------------------------------------------------------------------|
D|-----------16-------------------------------------------------------------------------------------------------------|
A|--------------------------------------------------------------------------------------------------------------------|
E|--------------------------------------------------------------------------------------------------------------------|

E|-17p14-----14--14----------------------------------------------------------------------------------------------|
B|-------17------17b-------14----16b-16b-16b---14h16--14b-----16-14-----14-17---14---14--17p14-------14--17p14---|
G|-------------------------14----16b-16b-16b---14-----14b-----16-14-----14-16b--16b--------------16--------------|
D|---------------------16----------------------------------16--------16------------------------------------------|
A|---------------------------------------------------------------------------------------------------------------|
E|---------------------------------------------------------------------------------------------------------------|

E|-17p14---------------------------------------------------------------------------------------------------------|
B|-------17--14------14----17p14------------------------14p17--17b-17p14----17----17b---17p14--17--17b--17p14----|
G|---------------16b--------------16---14-------14--16-----------------------------------------------------------|
D|-----------------------------------------16--------------------------------------------------------------------|
A|---------------------------------------------------------------------------------------------------------------|
E|---------------------------------------------------------------------------------------------------------------|

E|------------------17b----17b-------------------------------------------------------22p19p0--0--0-21p17p0---0---|
B|-17--17b--17p14---------------------------------------------------------------17b------------------------------|
G|-------------------------------16p14h16---16b-16-16b-16-16-16-16-16-16-16p14-----------------------------------|
D|---------------------------------------------------------------------------------------------------------------|
A|---------------------------------------------------------------------------------------------------------------|
E|---------------------------------------------------------------------------------------------------------------|

E|-0--10h15p0---0---0--17p14p0----0---0--22p19p0---0--0---21p17p0--0--0--18p15p0---0--0--17p14p0--0--0--|
B|------------------------------------------------------------------------------------------------------|
G|------------------------------------------------------------------------------------------------------|
D|------------------------------------------------------------------------------------------------------|
A|------------------------------------------------------------------------------------------------------|
E|------------------------------------------------------------------------------------------------------|

E|-19p0-17p0-15p0-14p0-17p0-15p0-14p0-12p0-15p0-14p0-12p0-10p0-10p8p7--------10p8p7---------------------------|
B|--------------------------------------------------------------------10p8p7--------10p8p0---5----------------|
G|-------------------------------------------------------------------------------------------5----------------|
D|------------------------------------------------------------------------------------------------------------|
A|------------------------------------------------------------------------------------------------------------|
E|------------------------------------------------------------------------------------------------------------|
Acordes para:

    0 comentários

      mostrar mais comentários

      Conseguiu tocar?

      16tocaram1ainda não

      Grave um vídeo tocando And Justice For All e mande pra gente!

      00:00 / 00:00
      outros vídeos desta música
      repetirqualidadeautomática
      Outro vídeos desta música
        00:00 / 00:00
        automática
        OK