Cifra Club

The Unforgiven III

Metallica

Cifra: Principal (violão e guitarra)
tom: G
Piano Intro.

E|-7----7----7----7------|
B|--8----8----8----8-----|
G|---9----9----9----9----|
D|----9----9----9----9~~-|
A|-----------------------|
E|-----------------------|

7------7------7------7-------|-7------7------7------7-----|
B|--8------8------8------8-----| --8------8------8------8----|
G|----9------9------9------9---| ---7------7------7------7---|
D|------9------9------9------9-| -----9------9------9------9-|
A|-----------------------------| ----------------------------|
E|-----------------------------| ----------------------------|

 10----------10----------10----------10---------|
E|--10----------10----------10----------10-------|
B|----12--11------12--11------12--11------12--11-|
G|-----------------------------------------------|
D|-----------------------------------------------|
A|-----------------------------------------------| -

E|----7-------7----------------------------------|
B|-----10-8-7--10-8-7-10-8-7--------7~~----------|
G|---------------------------9-8~--8-------------|
D|--------------------------------9--------------|
A|-----------------------------------------------|
E|-----------------------------------------------|
Guitar Intro 1ª Guitarra Afinação  E
E|-------------------------------------------------------------------------|
B|-------------------------------------------------------------------------|
G|-----------------| ------------Repetir 2x---------------|-----------------|
D|-----2---2---2------------2--2--2--------------2--2--2-------------------|
A|-------------------------------------------------------------------------|
E|--0--------------2h3---0------------2h3--0-------------------------------|
Segunda parte......
E|---------------------------------------------------------------------------|
B|---------------------------------------------------------------------------|
G|---------------------------------------------------------------------------|
D|-----2-2-2----------2-2-2------------2-2-2-----------2-2-2-----------2-2-2-|
A|--------------------------------------------------0----------0-------------|
E|--0----------0-3-2| ----------0-2-3------------0-3---------------3-0--------|
Dedilhado 2°Guitarra

E|---------------------------------| -----------------------------------|
B|---------------------------------| -----------------------------------|
G|-------9-------------9-----------| ------5----------------------------|2X
D|--------9---10-9------9---10-9---| -------5---7-5-----4--4------------|
A|------7----7---------7---7-------| -----3----3-------2----------------|
E|-----0---0---------0---0---------| ----0----0------0----0----2h3-2-0--|

E|----------------------------------------|
B|----------------------------------------|
G|-------------4--------4---------4-------|
D|-----------5--------5--5------5--77-44--| 4X
A|-------757------757-------757----55-22--|
E|----00--------00--------00--------------|

E|----------------------------| ----------------------------------------------|
B|----------------------------| ----------------------------------------------|
G|----------------------------| ----------------------------------------------|
D|---99-55-77------2-2--------| ---99-55-77-----2-2---------------------------|
A|---77-33-55-55-------2-5-3--| ---77-33-55-55-----2-5-3--3~2-----------------|
E|------------33----------3-3-| ------------33--------3-3----5-3-5-3-2-3-0~~--|

E|-------------------------------------------------------------------------|
B|-------------------------------------------------------------------------|
G|-------------------------------------------------------------------------|
D|-----2---2---2------------2--2--2--------2--2--2-------------------------|
A|-----------------------------------------------------| Repete Várias Vezes-|
E|--0--------------2h3---0------------2h3----------------------------------|

Dedilhado 2°Guitarra

E|---------------------------------| -----------------------------------|
B|---------------------------------| -----------------------------------|
G|-------9-------------9-----------| ------5----------------------------|2X
D|--------9---10-9------9---10-9---| -------5---7-5-----4--4------------|
A|------7----7---------7---7-------| -----3----3-------2----------------|
E|-----0---0---------0---0---------| ----0----0------0----0----2h3-2-0--|

E|----------------------------------------|
B|----------------------------------------|
G|-------------4--------4---------4-------|
D|-----------5--------5--5------5--77-44--| 4X
A|-------757------757-------757----55-22--|
E|----00--------00--------00--------------|

E|----------------------------| ----------------------------------------------|
B|----------------------------| ----------------------------------------------|
G|----------------------------| ----------------------------------------------|
D|---99-55-77------2-2--------| ---99-55-77-----2-2---------------------------|
A|---77-33-55-55-------2-5-3--| ---77-33-55-55-----2-5-3--3~2-----------------|
E|------------33----------3-3-| ------------33--------3-3----5-3-5-3-2-3-0~~--|

E|-| E|-------------------------------------------------------------------------|
B|-------------------------------------------------------------------------|
G|-------------------------------------------------------------------------|
D|-----2---2---2------------2--2--2--------2--2--2-------------------------|
A|-----------------------------------------------------| Repete Várias Vezes-|
E|--0--------------2h3---0------------2h3----------------------------------|

Dedilhado 2°Guitarra
                                                                        4:33
E|---------------------------------| -----------------------------------|
B|---------------------------------| -----------------------------------|
G|-------9-------------9-----------| ------5----------------------------|2X
D|--------9---10-9------9---10-9---| -------5---7-5-----4--4------------|
A|------7----7---------7---7-------| -----3----3-------2----------------|
E|-----0---0---------0---0---------| ----0----0------0----0----2h3-2-0--|


Solo

5:34
E|-----------------------| -----12-----------------12---------12------|
B|-14^------14^----------| --------15p12h15p12--15^--15p12-15^--15p12-|
G|-14^------14^--12------| -14^---------------------------------------|
D|------------------14---| -------------------------------------------|
A|-----------------------| -------------------------------------------|
E|-----------------------| -------------------------------------------|

5:41
E|----12---12-15^-12-12-15^-12-12-12-12-|
B|-15^--15^-----------------------------|
G|--------------------------------------|
D|--------------------------------------|
A|--------------------------------------|
E|--------------------------------------|

5:45
E|-12h15p12---12------------------------| -------------------------|
B|----------15--15-12-12-12-------------| -12h13p12---12-----------|
G|--------------------14^--14v12----12~~| ----------14--14-12------|
D|-------------------------------14-----| -------------------14-12-|
A|--------------------------------------| -------------------------|
E|--------------------------------------| -------------------------|

5:49
E|-------------------------------------|
B|----12h13p12-------------------------|
G|-------------14p12----12h14p12-------|
D|-14----------------14----------14----|
A|-------------------------------------|
E|-------------------------------------|

5:51
E|------------------------------------------|
B|-12h13p12---------------------------------|
G|----------14p12-14p12---12h14p12----------|
D|---------------------14^--------14-12-14--|
A|------------------------------------------|
E|------------------------------------------|

5:53
E|----12---------------------------------------------------------------|
B|-15^--15-12----12h13p12----12----------12--12-12----------12--12-12--|
G|------------14----------14----14p12----12--12-12--14p12---12--12-12--|
D|------------------------------------14-----------------14------------|
A|---------------------------------------------------------------------|
E|---------------------------------------------------------------------|

5:56
E|----------------------------------------------|
B|-14^----14^----14^----14b15b14--12----12------|
G|-14^-12-14^-12-14^-12-14b15b14--12----12------|
D|-----------------------------------14----14---|
A|----------------------------------------------|
E|----------------------------------------------|

6:00
E|-------------------------------------------------------|
B|-----12-12-----12-12-----12-----12-12-----12-12-----12-|
G|-14^-------14^-------14^----14^-------14^-------14^----|
D|-------------------------------------------------------|
A|-------------------------------------------------------|
E|-------------------------------------------------------|

6:03
E|-----------------------------| -----------------------------------|
B|-----------------------------| --------------------14---14---14---|
G|--------------12-14-s16------| ----------12-14-s16-14^--14^--14^--|
D|-14--14-12-14-----------14---| -14-12-14--------------------------|
A|-----------------------------| -----------------------------------|
E|-----------------------------| -----------------------------------|

6:14
E|----12-15p14p12-15p14p12-15p14p12-15p14p12-|
B|-15^---------------------------------------|
G|-------------------------------------------|
D|-------------------------------------------|
A|-------------------------------------------|
E|-------------------------------------------|

6:17
E|-12-12-12-19p17p15-19p17p15-19p17p15-19p17p15-|
B|----------------------------------------------|
G|----------------------------------------------|
D|----------------------------------------------|
A|----------------------------------------------|
E|----------------------------------------------|

6:18
E|-19p17p15-19p17p15----------19p17p15-19p17p15----------|
B|-------------------19p17p15-------------------19p17p15-|
G|-------------------------------------------------------|
D|-------------------------------------------------------|
A|-------------------------------------------------------|
E|-------------------------------------------------------|

6:24
E|-----------------12-----------------------------------------|
B|-15^-15^-15~~-15^--15p12---12-15p12----12-13p12----12h14-12-|
G|------------------------14^---------14----------14----------|
D|------------------------------------------------------------|
A|------------------------------------------------------------|
E|------------------------------------------------------------|

6:27
E|-------------------------------------|
B|-------------------------------------|
G|-12--11--10----9^-9-9-7--------------|
D|---13--12--11-----------9-7-5-4-2----|
A|-------------------------------------|
E|-------------------------------------|
00:00 / 00:00
Outros vídeos desta música
Repetir
Outros vídeos desta música
Composição de James Hetfield / Kirk Hammett / Lars Ulrich / Robert Trujillo
Colaboração e revisão:
147.622 exibições
    • ½ Tom
    • A
    • Bb
    • B
    • C
    • Db
    • D
    • Eb
    • E
    • F
    • F#
    • G
    • Ab
  • Adicionar à lista

    0 comentários

    Ver todos os comentários

    Conseguiu tocar?

    14 Tocaram 4 Ainda não

    Grave um vídeo tocando The Unforgiven III e nos envie!

    Entre para oCifra Club PRO

    Tenha acesso a benefícios exclusivos no App e no Site

    • Chega de anúncios

    • Prioridade de compra em lançamentos

    • Mais recursos no app do Afinador

    • Atendimento Prioritário

    • Descontos nos produtos Cifra Club

    • Ajude a produzir mais conteúdo

    00:00 / 00:00

    Cifra Club Pro

    Aproveite o Cifra Club com benefícios exclusivos e sem anúncios
    Cifra Club Pro
    Aproveite o Cifra Club com benefícios exclusivos e sem anúncios
    OK