Cifra Club

Aprenda

The Unforgiven

Metallica

Tab de baixo: Versão 2
Verse 1:
|------------------------------------------------------------|
|------------------------------------------------------------|
|----------------------------------5555555555----------------|
|--5555555555--00000000--5555555555----------555555555-------|
 
|-----------------------------------------------------------------|
|-----------------------------------------------------------------|
|-----------------3333333333---------------333333333--------------|
|--5555555555----------------3333333333-------------3333333333----|

CHORUS:
What I've felt, what I've known never shined through in what I've shown.
Never be. Never see. Won't see what might have been.
What I've felt, what I've known,never shined through in what I've shown.
Never free. Never me. So I dub thee unforgiven.

CHORUS:
|--------------------------------------------------------------------|
|--------------------------------------------------------------------|
|--------0---2---3-------3------3---3-2---------2-----------0-0-2----|
|---------------------------------------3-----------0----------------|

|--------------------------------------------------------------------|
|-------------------------3-----3---3-1------------------------------|
|-0-------0---2---3---------------------2-------2-----------2---0-2--|
|---------------------------------------------------4---------4------|

|--------------------------------------------------------------------|
|--------------------------------------------------------------------|
|-0-------0---2---3-------3-----3---3-2---------2-----------0-0-2----|
|---------------------------------------3-----------0----------------|

|--------------------------------------------------------------------|
|-------------------------3-----3---3-1------------------------------|
|-0-------0---2---3---------------------2-------2-----------2---0-2--|
|---------------------------------------------------4---------4------|

|---------------------------------|
|---------------------------------|
|-0-------------------------------|
|---------------------------------|

VERSE 2:
They dedicate their lives to running all of his
He tries to please them all, this bitter man he is
Throughout the life the same, he's battled constantly
This fight he cannot win. A tired man they see no longer cares.
The old man then prepares to die regretfully
That old man here is me.
Verse 2:
|------------------------------------------------------------|
|------------------------------------------------------------|
|----------------------------------5555555555----------------|
|--5555555555--00000000--5555555555----------555555555-------|

|-----------------------------------------------------------------|
|-----------------------------------------------------------------|
|-----------------3333333333---------------333333333--------------|
|--5555555555----------------3333333333-------------3333333333----|
Composição de James Hetfield / Kirk Hammett / Lars Ulrich
Colaboração e revisão:
  • Eliakin sá
689 exibições

0 comentários

Ver todos os comentários
00:00 / 00:00
outros vídeos desta música
repetir qualidade Automático
Outros vídeos desta música
00:00 / 00:00
Automático

Cifra Club Pro

Aproveite o Cifra Club com benefícios exclusivos e sem anúncios
Cifra Club Pro
Aproveite o Cifra Club com benefícios exclusivos e sem anúncios
OK