Cifra Club

To Live Is To Die

Metallica

Cifra: Principal (violão e guitarra)
tom: Ab
[Intro] 

Parte 1 De 2

E|-7~-----7--------------------7~-----10----|
B|-7~-----7--7-----------7-----7~-----8-----|
G|-7~--7--7-----7-----7--------7~-----------|
D|-9~--9-----9-----------------9~-----------|
A|-9~---------------------------------------|
E|-7~--------------7--------7-----7---------|

E|-10~-----10---------------------0-0--12~~-|
B|-10~---------------7-8-7h8p7----0-0--0~~~-|
G|-11~--------11-----7-7-7-----9--9-11-9~~~-|
D|-12~--12----------------------------------|
A|-12~------------12------------------------|
E|-10~--------------------------------------|
 
E|----------------7--7--7-7/12~--12~-----12-|
B|----------8--8-----------------12~--------|
G|----------9--9--7--7--7-7/9~~--12~--------|
D|-------------------------------14~--14----|
A|---/9--7~~---------------------14~--------|
E|-0------------------------------0~--0-----|

E|---------8--7--10-7h10p7------------------|
B|-12--12--0--5--0-------7------------------|
G|-9---9---0-----0--------------------------|
D|-9----------------------------------------|
A|-10---------------------------------------|
E|------------------------------------------|
 
Parte 2 de 2 - 3x

E|--7-----7--------------------7-----10--10-|
B|--7-----7--7-----------7-----7-----8---10-|
G|--7--7--7-----7-----7--------7---------11-|
D|--9--9-----9-----------------9---------12-|
A|--9------------------------------------12-|
E|--7--------------7--------7-----7------10-|

E|----10--------------------0-0--12---------|
B|--------------7-8-7h8p7---0-0--0----------|
G|-------11-----7-7-7-----9-9-11-9----------|
D|-12---------------------------------------|
A|----------12------------------------------|
E|------------------------------------------|
 
E|----------------7--7--7-7/12---12-----12--|
B|----------8--8-----------------12---------|
G|----------9--9--7--7--7-7/9----12---------|
D|-------------------------------14--14-----|
A|---/9--7~~---------------------14---------|
E|-0-----------------------------0---0------|

E|---------8--7--10-7h10p7-------------------|
B|-12--12--0--5--0-------7-------------------|
G|-9---9---0-----0---------------------------|
D|-9-----------------------------------------|
A|-10----------------------------------------|
E|-------------------------------------------|

[Primeira Parte - 2x]

Parte 1 de 3 - 3x

         P.M.            . .           . .
E|------------------------------------------|
B|------------------------------------------|
G|------------------------------------------|
D|--4--4-------2-4-5--5-------5/-4--4-------|
A|--4--4-------2-4-5--5-------5/-4--4-------|
E|--2--2--2-2--0-2-3--3--3-3--3/-2--2--2-2--|

E|------------------------------------------|
B|------------------------------------------|
G|------------------------------------------|
D|-2-4-7--7--7/5--5/4-----------------------|
A|-2-4-7--7--7/5--5/4-----------------------|
E|-0-2-5--5--5/3--3/2-----------------------|

Parte 2 De 3

   P.M. .  . . .  . . .  . . .  . . .
E|------------------------------------------|
B|------------------------------------------|
G|------------------------------------------|
D|--4-4-4--5-5-5--4-4-4--7-7-7--4-4-4-------|
A|--4-4-4--5-5-5--4-4-4--7-7-7--4-4-4-------|
E|--2-2-2--3-3-3--2-2-2--5-5-5--2-2-2-------|

  P.M. .  . . .  . . . 
E|------------------------------------------|
B|------------------------------------------|
G|------------------------------------------|
D|-5-5-5--4-4-4--7-7-7----------------------|
A|-5-5-5--4-4-4--7-7-7----------------------|
E|-3-3-3--2-2-2--5-5-5----------------------|

   P.M   .    .    .  
E|------------------------------------------|
B|------------------------------------------|
G|------------------------------------------|
D|----5----7----5----7----------------------|
A|----5----7----5----7----------------------|
E|--2-3--2-5--2-3--2-5----------------------|

  P.M. . . . . . . . . . . . . . .
E|------------------------------------------|
B|------------------------------------------|
G|------------------------------------------|
D|------------------------------------------|
A|------------------------------------------|
E|-2-3-2-5-2-3-2-5-2-3-2-5-2-3-2-5----------|

[Segunda Parte] 

Parte 1 de 4 - 2x

E|------------------------------------------|
B|------------------------------------------|
G|--11\-6--4/6/7\4--4/6-6\3--3-3-2----------|
D|------------------------------------------|
A|--9\--4--2/4/5\2--2/4-4\1--1-1-0----------|
E|------------------------------------------|

Parte 2 De 4

E|------------------------------------------|
B|------------------------------------------|
G|-----2---5-4--2------------2---------6-5-4|
D|-4-4-2-4-5-4--2--4---------2--4--4-4-6-5-4|
A|-4-4-0-4-3-2--0--4---------0--4--4-4-4-3-2|
E|-2-2---2---------2------------2--2-2------|

E|------------------------------------------|
B|------------------------------------------|
G|-----2---5-4--2------------2---------6-5-4|
D|-4-4-2-4-5-4--2--4---4-4-4-2--4--4-4-6-5-4|
A|-4-4-0-4-3-2--0--4---4-4-4-0--4--4-4-4-3-2|
E|-2-2---2---------2---2-2-2----2--2-2------|

Parte 3 de 4

E|------------------------------------------|
B|--5b6r5-------6b7r6-------5b6r5-----------|
G|--------6-----------7-----------6---------| (2x)
D|----------4~----------5~----------4~7~----|
A|------------------------------------------|
E|------------------------------------------|

Parte 4 de 4

   P.M. .  . . .  . . .  . . .  . . .
E|------------------------------------------|
B|------------------------------------------|
G|------------------------------------------|
D|--4-4-4--5-5-5--4-4-4--7-7-7--4-4-4-------|
A|--4-4-4--5-5-5--4-4-4--7-7-7--4-4-4-------|
E|--2-2-2--3-3-3--2-2-2--5-5-5--2-2-2-------|

  P.M. .  . . .  . . . 
E|------------------------------------------|
B|------------------------------------------|
G|------------------------------------------|
D|-5-5-5--4-4-4--7-7-7----------------------|
A|-5-5-5--4-4-4--7-7-7----------------------|
E|-3-3-3--2-2-2--5-5-5----------------------|

   P.M   .    .    .  
E|------------------------------------------|
B|------------------------------------------|
G|------------------------------------------|
D|----5----7----5----7----------------------|
A|----5----7----5----7----------------------|
E|--2-3--2-5--2-3--2-5----------------------|

  P.M. . . . . . . . . . . . . . .
E|------------------------------------------|
B|------------------------------------------|
G|------------------------------------------|
D|------------------------------------------|
A|------------------------------------------|
E|-2-3-2-5-2-3-2-5-2-3-2-5-2-3-2-5----------|

[Solo - Improviso]

Parte 1 de 2 - 4x

         P.M.            . .           . .
E|------------------------------------------|
B|------------------------------------------|
G|------------------------------------------|
D|--4--4-------2-4-5--5-------5/-4--4-------|
A|--4--4-------2-4-5--5-------5/-4--4-------|
E|--2--2--2-2--0-2-3--3--3-3--3/-2--2--2-2--|

E|------------------------------------------|
B|------------------------------------------|
G|------------------------------------------|
D|-2-4-7--7--7/5--5/4-----------------------|
A|-2-4-7--7--7/5--5/4-----------------------|
E|-0-2-5--5--5/3--3/2-----------------------|

Parte 2 de 2

   P.M. .  . . .  . . .  . . .  . . .
E|------------------------------------------|
B|------------------------------------------|
G|------------------------------------------|
D|--4-4-4--5-5-5--4-4-4--7-7-7--4-4-4-------|
A|--4-4-4--5-5-5--4-4-4--7-7-7--4-4-4-------|
E|--2-2-2--3-3-3--2-2-2--5-5-5--2-2-2-------|

  P.M. .  . . .  . . . 
E|------------------------------------------|
B|------------------------------------------|
G|------------------------------------------|
D|-5-5-5--4-4-4--7-7-7----------------------|
A|-5-5-5--4-4-4--7-7-7----------------------|
E|-3-3-3--2-2-2--5-5-5----------------------|

   P.M   .    .    .  
E|------------------------------------------|
B|------------------------------------------|
G|------------------------------------------|
D|----5----7----5----7----------------------|
A|----5----7----5----7----------------------|
E|--2-3--2-5--2-3--2-5----------------------|

  P.M. . . . . . . . . . . . . . .
E|------------------------------------------|
B|------------------------------------------|
G|------------------------------------------|
D|------------------------------------------|
A|------------------------------------------|
E|-2-3-2-5-2-3-2-5-2-3-2-5-2-3-2-5----------|

[Terceira Parte]

E|------------------------------------------|
B|--5b6r5-------6b7r6-------5b6r5-----------|
G|--------6-----------7-----------6---------| (2x)
D|----------4~----------5~----------4~7~----|
A|------------------------------------------|
E|------------------------------------------|

E|------------------------------------------|
B|--5b6r5-------6b7r6-------3b4r3-----------|
G|--------6-----------7-----------4---------|
D|----------4~----------5~----------2~------|
A|------------------------------------------|
E|------------------------------------------|

E|------------------------------------------|
B|--8b9r8-----------------------------------|
G|--------9---------------------------------|
D|----------7~~5----------------------------|
A|------------------------------------------|
E|------------------------------------------|

[Quarta Parte]

[Base]

E|------------------------------------------|
B|------------------------------------------|
G|-2--------------------2-------------------| (2x)
D|-2-----5----2----3----2-----5----2----3---|
A|-0-----5----2----3----0-----5----2----3---|
E|-------3----0----1--3-------3----0----1---|

[Solo - Guitarra 1]
 
E|------------------------------------------|
B|------------------------------------------|
G|--4h5~4h5p4-4~~---------------------------|
D|---------------7-5-5~~5-5h7~--------------|
A|------------------------------------------|
E|------------------------------------------|

E|------------------------------------------|
B|------------------------------------------|
G|-4h5~5h7-7~~4--------4--------------------|
D|--------------5-5~~5---5------------------|
A|------------------------------------------|
E|------------------------------------------|

[Solo - Guitarra 2]

E|------------------------------------------|
B|--3h5~3h5p3-3~~---------------------------|
G|---------------5-4-4~~4-4h5~~-------------|
D|------------------------------------------|
A|------------------------------------------|
E|------------------------------------------|

E|-------3-3~~------------------------------|
B|-3h5~5------5-3------5--------------------|
G|----------------4~~4---4------------------|
D|------------------------------------------|
A|------------------------------------------|
E|------------------------------------------|
 
[Quinta Parte]

(Tocar durante todo o improviso)

E|------------------------------------------|
B|--0h1---0h1p0-0---------------------------|
G|------2---------2-0-0---0-0h2-------------|
D|----------------------2-------0-----------|
A|--0-----------------------------0---------|
E|--------------3---3-0---0-1---------------|

E|------------------------------------------|
B|-1---3-3-3---------0----3-0h1-------------|
G|---2-------2-0---0---0--------------------|
D|---------------2--------------------------|
A|-0------------------------0---------------|
E|-------3-----0----------------------------|

[Sexta Parte]

[Tab - Base]

E|------------------------------------------|
B|------------------------------------------|
G|-2----------2---------2-------------------|
D|-2------2-5-2-----2-5-2----2-3-5----5--5--|
A|-0------2-5-0-----2-5-0----2-3-5----5--5--|
E|--------0-3-------0-3------0-1-3----3--3--|
 
[Solo - Guitarra 1]

E|----------------------------------------------------|
B|------------------------5------5-5-3~~3-3-----3~~3-5|
G|--5------5---5------5-----5~~5------------4-5-------| repeat
D|----7~~7---7---7~~7---7-----------------------------|
A|----------------------------------------------------|
E|----------------------------------------------------|
 
[Solo - Guitarra 2]

E|----------------------------------------------------|
B|----------------------------------------------------|
G|------------------------5------5-5-4~~4-4-----4~~4-5| repeat
D|--7------7---7------7-----7~~7------------5-7-------|
A|----7~~7---7---7~~7---7-----------------------------|
E|----------------------------------------------------|

[Sétima parte]

G|--4----------2-4--------2-4--------2------2--2-----4|
D|--4--------4-2-4------4-2-4----2-5-2------2--2-----4|
A|--2--------4-0-2------4-0-2----2-5-0------0--0-----2|
E|-----------2----------2--------0-3------------------|
 
12b) Kirk
E|----------------------------------------------------|
B|------------------------7------7-7-5~~5-5-----5~~5-7|
G|--7------7---7------7-----7~~7------------6-7-------| repeat
D|----9~~9---9---9~~9---9-----------------------------|
A|----------------------------------------------------|
E|----------------------------------------------------|
 
12c) lower harmony
E|----------------------------------------------------|
B|----------------------------------------------------|
G|------------------------7------7-7-6~~6-6-----6~~6-7| repeat
D|--9------9---9------9-----9~~9------------7-9-------|
A|----9~~9---9---9~~9---9-----------------------------|
E|----------------------------------------------------|
(7:03)
 
 
13a) James
G|--4-4--------4-4--------4-4|
D|--4-4--------4-4--------4-4|
A|--2-2--------2-2--------2-2|
E|---------------------------|
00:00 / 00:00
Outros vídeos desta música
Repetir
Outros vídeos desta música
Composição de Cliff Burton / James Hetfield / Lars Ulrich
Colaboração e revisão:
  • Lucas Kappaun
  • diego luciano
59.028 exibições
    • ½ Tom
    • A
    • Bb
    • B
    • C
    • Db
    • D
    • Eb
    • E
    • F
    • F#
    • G
    • Ab
  • Adicionar à lista

    0 comentários

    Ver todos os comentários

    Conseguiu tocar?

    3 Tocaram 3 Ainda não

    Grave um vídeo tocando To Live Is To Die e nos envie!

    Entre para oCifra Club PRO

    Tenha acesso a benefícios exclusivos no App e no Site

    • Chega de anúncios

    • Prioridade de compra em lançamentos

    • Mais recursos no app do Afinador

    • Atendimento Prioritário

    • Descontos nos produtos Cifra Club

    • Ajude a produzir mais conteúdo

    00:00 / 00:00

    Cifra Club Pro

    Aproveite o Cifra Club com benefícios exclusivos e sem anúncios
    Cifra Club Pro
    Aproveite o Cifra Club com benefícios exclusivos e sem anúncios
    OK