Cifra Club

Aprenda

To Live Is To Die

Metallica

Cifra: Principal (violão e guitarra)
tom: C


PRESTAM BASTANTE ATENÇÃO NO SEGUIMENTO DA MUSICA COM A TABLATURA
PARA NÃO FICAR "PERDIDO”.




solo introdução


riff 1
-7----(7-------------------(7-----10-|-10-----10---------------------0-0--12-|
-7----)7--7-----------7----)7-----8--|-10---------------7-8-7^8^7----0-0--0--|  
-7--7-(7-----7-----7-------(7--------|-11--------11-----7-7-7-----9--9-11-9--|   repete algumas vezes
-9--9-----9----------------)9--------|-12--12--------------------------------|  /
-9-----------------------------------|-12------------12----------------------| /
-7--------------7--------7-----7-----|-10------------------------------------|/

2 guitarras para solar sai um som mais parecido

-----------------7--7--/12-|--12-----12----------8--7--10-7^10^7--|
-----------8--8------------|--12---------12--12--0--5--0-------7--|
-----------9--9--7--7--/9--|--12---------9---9---0-----0----------|
---------------------------|--14--14-----9------------------------|
----/9--7------------------|--14---------10-----------------------|
--0------------------------|--0---0-------------------------------|
parte final do solo intro



riff 2
------------------|----------------|------------------|-----------------|
-2--2--x-x-------|-3--3--x-x--32-|-2--2--x-x-------|-5--5---53--32-|
-3--3--x-x-------|-4--4--x-x--43-|-3--3--x-x-------|-6--6-x-64--43-|
-4--4--x-x--2--4-|-5--5--x-x--54-|-4--4--x-x--2--4-|-7--7-x-75--54-|
-4--4--x-x--2--4-|-5--5--x-x--54-|-4--4--x-x--2--4-|-7--7---75--54-|
-2--2-------0--2-|-3--3-------32-|-2--2-------0--2-|-5--5---53--32-|
final do riff 2



riff 3

---------------------------|-----|-------------------|
---------------------------|-----|-------------------|
---------------------------|--%--|-------------------|
---------------------------|-----|-------------------|
--4-4-4-5-5-5-4-4-4-7-7-7--|-----|--4-5-4-7-4-5-4-7--|
--2-2-2-3-3-3-2-2-2-5-5-5--|-----|--2-3-2-5-2-3-2-5--|

-----------------------------------|
-----------------------------------|
-----------------------------------|
-----------------------------------|
-----------------------------------|
--2-3-2-5-2-3-2-5-2-3-2-5-2^3-2^3--|
final do riff 3

riff 4
------------------|------------------|------------------|---------|
------------------|------------------|------------------|---------|
--11-6-----4--6--|--7--4-----4--6--|--6--3-----3--3--|--2------|
------------------|------------------|------------------|---------|
--9--4-----2--4--|--5--2-----2--4--|--4--1-----1--1--|--0------|
------------------|------------------|------------------|---------|
final do riff 4

riff 5


-----------------------|--------|--------------------|
-----------------------|--------|--------------------|
-----------------------|-----2--|--------------------|
--------2-----5--4--2--|-----2--|-----x--x--6--4--4--|
--4--4--0--4--3--2--0--|--4--0--|--4--x--x--4--3--2--|
--2--2-----2-----------|--2-----|--2--x--x-----------|

-----------------------|-------------|--------------------|
-----------------------|-------------|--------------------|
-----------------------|----------2--|--------------------|
--------2-----5--4--2--|----x-x-x-2--|-----x--x--6--4--4--|
--4--4--0--4--3--2--0--|--4-x-x-x-0--|--4--x--x--4--3--2--|
--2--2-----2-----------|--2-x-x-x----|--2--x--x-----------|


 



riff 6 
---/-------|-------/-------|-------/-----------------|---------------------|
-5'  `--2---|-----6'  `--3---|-x/--5'  `(5)--2----------|---------------------|
------------|----------------|------------------------2-|-2---2^4^21-1^2^1---|
----------4-|-(4)----------5-|------------------4--4----|-------------------4-|
------------|----------------|--------------------------|---------------------|
------------|----------------|--------------------------|---------------------|
final do riff 6






riff 7

Am     E     G     E     Em    E     F  F  G     Am    C     G  D  C        |
1  1  1     1  1  1     1  1  1     1  1  1     1  1  1     1  1  1         |        
2  8  8     2  8  8     2  8  8     4. 8  4     2  8  8     2  8  8         |_ 2ª guitarra  
| -----------|--3--3-----|--0--0-----|--1--------|-----------|--3--------|
| --5--5-----|--3--3-----|--0--0-----|--1--------|--5--5-----|--3--------|
|:--5--5-----|--4--4-----|--0--0-----|--2--------|--5--5-----|--4--------|
| --7--7-----|--5--5-----|--2--2-----|--3--------|--7--7-----|--5--------|
| --7--7-----|--5--5-----|--2--2-----|--3--------|--7--7-----|--5--5--3--|
| --5--5--0--|--3--3--0--|--0--0--0--|--1--1--3--|--5--5--8--|--4--------|


 


Em       D     G                G          _ 2ª guitarra
1  1  1  1     1  1  1  1       1  1  R
4. 8  8  8     4. 16 16 4       2  8  8
~~~
--0--0--0-----|--3--3--3--3-- ||--3--3-----|
--0--0--0-----|--3--3--3--3-- ||--3--3-----|
--0--0--0-----|--4--4--4--4--:||--4--4-----|
--2--2--2-----|--5--5--5--5-- ||--5--5-----|
--2--2--2--5--|--5--5--5--5-- ||--5--5-----|
--0--0--0-----|--3--3--3--3-- ||--3--3-----|
final do riff 7

riff 8

Am                    G                 Em                Dm/F
---------------------|-----------------|-----------------|-------------|
--1--------0^1^0-----|--0--------------|-----------------|-------------|
-----2------------2--|-----2-----0-----|--0--------0-----|--0^2--------|
--------2------------|-----------------|-----2-----------|-------0-----|
--0------------------|-----------------|--------2--------|----------0--|
---------------------|--3-----3-----3--|--0-----------0--|--1----------|

Am                G                 Em                G
-----------------|-----------------|-----------------|-----------------|
--1--------3-----|--3-----0--------|--------------0--|-(0)-------3-----|
-----2-----------|-----------0-----|--0--------0-----|--0--------------|
--------2--------|-----------------|-----2-----------|-----0-----------|
--0--------------|-----------------|--------2-----2--|--------2-----0--|
--------------0--|--3--3--------0--|--0--------------|--3--------------|
fianl do riff 8


riff 9

1  1     1  1      |
4  2     4  4      |_ 2ª guitarra 
-----------------|
--2--2-----2--2--|
--3--3-----3--3--|
--4--4-----4--4--|
--4--4-----4--4--|
--2--2-----2--2--|



 

Then play:
 
----/---------|----/---------|----/-----------|--3'  `(3)^0--------|----|
--5'  `--2-----|--6'  `--3-----|--3'  `(3)^0-----|--------------------|----|
---------------|---------------|-----------------|--------------2^4^2^|^0--|
------------4--|------------5--|--------------2--|--------------------|----|
---------------|---------------|-----------------|--------------------|----|
---------------|---------------|-----------------|--------------------|----|


acompanha o riff 7 
------------------|-------------|-----------------|----------|
------------------|-------------|-----------------|----------|
--4^5----4^5--4^5^|^4-----------|-----------------|----------|
------------------|-------7--5--|--75-----5-5-5--|--7-------|
------------------|-------------|-----------------|----------|
------------------|-------------|-----------------|----------|

-------------------|---------------|------------------|-----|
-------------------|---------------|------------------|-----|
--4^5--5-----5--7--|--7------4-----|---------------4--|--%--|
-------------------|------------5--|--5-----5-5-5-----|-----|
-------------------|---------------|------------------|-----|
-------------------|---------------|------------------|-----|

------------------|-------------|---------------|----------|
--3^5----3^5--3^5^|^3-----------|---------------|----------|
--4^5----4^5--4^5^|^4-----5--4--|--4-------4-4--|--5-------|
------------------|-------7--5--|--5-------5-5--|--7-------|
------------------|-------------|---------------|----------|
------------------|-------------|---------------|----------|

----------3--|--3-----------|-----------------|----------|
--3^5--5--5--|--5-----3-----|--------------5--|--3-------|
--4^5--5-----|--------4--4--|--4-----4-4-4-4--|--4-------|
-------------|-----------5--|--5-----5-5-5----|--5-------|
-------------|--------------|-----------------|----------|
-------------|--------------|-----------------|----------|

apos o riff 8 2 vezes 
| ---------|---------|---------|--------- ||--------- ||--------- ||---------|
| ---------|---------|---------|--------- ||--------- ||--------- ||---------|
|:--5------|--7------|---------|---------:||--4------:||---------:||--4------|
| ---------|--5------|--5------|--7------ ||--------- ||--5------ ||---------|
| --7------|---------|---------|--------- ||--5------ ||--------- ||--5------|
| ---------|---------|--7------|--8------ ||--------- ||--7------ ||---------|



acompanha o riff 8 2 vezes
-----------------|-----------------|--------------------|---------------------|
-------------^---|-----------------|--------------------|---------------------|
--7^9----9--75--|--5^7^4--2--0^2--|--4--5--5--4--0--5--|--5^4----------------|
-----------------|-----------------|--------------------|-------5--5/7---5^7--|
-----------------|-----------------|--------------------|---------------------|
-----------------|-----------------|--------------------|---------------------|

-------------------------|-----------------|-----------------|------------|
---^-----^---------------|-----------------|--^---^----------|------------|
--4/5-5-5/7-7-7/9-9-9^10-|-9---9-10-9^10^9-|-75-54---4^5^4-|------------|
-------------------------|-----------------|---------5-------|-5---5^7^5--|
-------------------------|-----------------|-----------------|------------|
-------------------------|-----------------|-----------------|------------|

----------------------|---------------------|--------------|----------------|
----------------------|------------------^--|----------/--|----------------|
-------------4^5^4----|-4^5^4--4--5--7--7/9-|-7---9--9'  `-|-7---/------^--|
-5^7---7--7---------5-|---------------------|--------------|---9'  `-7--5/9-|
----------------------|---------------------|--------------|----------------|
----------------------|---------------------|--------------|----------------|
 
------------------------------|-------------------------------------|
-----------------12^13^12-----|-12^13--12----12^15^12--12^13^12-----|
-12^14---14--14------------12-|----------------------------------12-|
------------------------------|-------------------------------------|
------------------------------|-------------------------------------|
------------------------------|-------------------------------------|

----------------------|--------------------------|
------------13^12-----|------15--13--12-----/---|
--12----12--------12--|--12--------------14'  `--|
----------------------|--------------------------|
----------------------|--------------------------|
----------------------|--------------------------|


riff 7 somente e apos, por duas vezes
 
------------|----------|------------|--------|---------------|------------|
------------|----------|------------|--------|---^-----------|------------|
--5--5--4^5^|^4--------|------------|--------|--4/5----5--7--|--7---4-----|
------------|----7--5--|--5----5-5--|--7-----|---------------|---------5--|
------------|----------|------------|--------|---------------|------------|
------------|----------|------------|--------|---------------|------------|

--------------|---|------------------|------------|------------|---------|
--------------|---|--3^5----3^5--3^5^|^3----------|------------|---------|
------------4-|-%-|--4^5----4^5--4^5^|^4----5--4--|--4----4-4--|--5------|
--5---5-5-5---|---|------------------|------7--5--|--5----5-5--|--7------|
--------------|---|------------------|------------|------------|---------|
--------------|---|------------------|------------|------------|---------|

------------3--|--3---------|----------------|----------------|
--3^5----5--3--|--3--3------|-------------5--|-------------3--|
--4^5----5-----|-----4---4--|--4----4-4-4-4--|--4----4-4-4-4--|
---------------|---------5--|--5----5-5-5----|--5----5-5-5----|
---------------|------------|----------------|----------------|
---------------|------------|----------------|----------------|








agora, uma guitarra toca sozinha esta parte toda
 --------------|-------------|-3-------3---|-------------|--^---------- |
|.--------------|-5------5----|-5--5--5-5-5-|-3---3-3-3-5-|-5/6--6-6-8--.|
|.--5-----------|-5--5---5----|----5--5---5-|-4---4-4-4-5-|-5/7--7-7-9--.|
| --7--7----7---|----7--------|-------------|-5---5-5-----|------------- |
| -----7----7---|-------------|-------------|-------------|------------- |
| --------------|-------------|-------------|-------------|------------- |



--------------|-----------|-5-------5---|-------------|--^-------------|
--------------|-7------7--|-7-7---7-7-7-|-5-----5-5-7-|-7/8-----8-8-10-|
--7-------7---|-7-7--7-7--|---7---7---7-|-6-----6-6-7-|-7/9-----9-9-11-|
--9-9---9-9---|---9--9----|-------------|-------------|----------------|
----9---9-----|-----------|-------------|-------------|----------------|
--------------|-----------|-------------|-------------|----------------|

--------------|------------|--------------|--------------|--------------|
--------------|-7------7---|--------------|--------------|--7-------7---|
--7-------7---|-7-7--7-7-7-|--7-------7---|--7-------7---|--7-7---7-7-7-|
--9-9---9-9-9-|---9--9---9-|--9-9---9-9-9-|--9-9---9-9-9-|--9-9---9-9-9-|
----9---9---9-|------------|----9---9---9-|----9---9---9-|----9---9---9-|
--------------|------------|--------------|--------------|--------------|

--7-------7---|---------------------|--------|--9--9--9-----9/10-|--(9)---|
--7-7---7-7-7-|-----------------^---|-11-----|--11-11-11---11/12-|--(10)--|
--7-7---7-7-7-|-11---11-11-11-11/12-|-11-----|-------------------|--------|
--9-9---9-9-9-|-11---11-11-11-11/12-|-11-----|-(11)--------------|--(11)--|
----9---9---9-|-9----9--9--9-----9--|-9------|-(9)---------------|--(9)---|
--------------|---------------------|--------|-------------------|--------|



agora este solo e tocado,
---/-------------|---/-------------|---/-----------|---------------------|
-5'  `2-----------|-6'  `3-----------|-5'  `(5)-2-----|---------------------|
------------------|------------------|--------------2-|-2---2^4^21 1^2^1---|
--------4-4-4^2---|--------5 5^4^2---|------------4---|-------------------4-|
----------------4-|----------------4-|----------------|---------------------|
------------------|------------------|----------------|---------------------|

----/---------|----/---------|----/-----------|---------|
--5'  `--2-----|--6'  `--3-----|--3'  `(3)^0-----|---------|
---------------|---------------|-----------------|---------|
------------4--|------------5--|--------------2--|--4------|
---------------|---------------|-----------------|-----7--|
---------------|---------------|-----------------|---------|


 
Solo principal da musica (final)
e-------------------------------------------------------------
b-16^-----------------------17^-17-15-14----------------------
g-16^--14-16-16-16--16-16-14------------16-14--14-16-16^p14---
d--------------------------------------------16------------16-
a-------------------------------------------------------------
e-------------------------------------------------------------

e-------------------------------------------------------------
b-------------------------------------------------------------
g---14-16^p14---14s11-------14-16-16^p14------14-------14-16--
d-16---------16--------14h16------------16--16--16---16-------
a-------------------------------------------------------------
e-------------------------------------------------------------

e-------------------------------------------------------------
b-------------------------------------17^--17-15-14-----------
g-16^p14-16-16^p14-16-16^p14-16-16^p14-------------16-14--14--
d-------------------------------------------------------16----
a-------------------------------------------------------------
e-------------------------------------------------------------

e-------------------------------------------------------------
b-------------------------------------------------------------
g-16-16^-14----------14h16-14----------14h16-14----------14h16
d---------------14h16-------------14h16-------------14h16-----
a----------14h16-------------14h16-------------14h16----------
e-------------------------------------------------------------

e-------------------------------------------------------------
b-16^----16^----16^----16^-14-16^-14-17^-17^------------------
g-16^-14-16^-14-16^-14-16^-14-16^-14--------------------------
d-------------------------------------------------------------
a-------------------------------------------------------------
e-------------------------------------------------------------

e-------------------------------------------------------------
b------------------------------------------------16----1616---
g--------------------------------14--16-14-14--16--14--1616-14
d-----------------------14--16-14--16--------16------16-------
a------12-14-14-12-16-14--16----------------------------------
e-14-14-------------------------------------------------------

              e-------------------17----------------------------------------
              b-----16-------17--------17-----------------------------------
              g---16--14^-16^--16^--16^--16^-16-15-14-----------------------
              d-16-----------------------------------16-15-14-----16-15-14--
              a----------------------------------------------16-14----------
              e-------------------------------------------------------------

              e------------14t9p6-14t9p6-15t10p7-15t10p7-14t9p6-14t9p6------
              b-------------------------------------------------------------
              g-------------------------------------------------------------
              d-------------------------------------------------------------
              a-16-15-14-12-------------------------------------------------
              e-------------------------------------------------------------

             
              e-15t10p7-15t10p7-14t9p6-14t9p6-15t10p7-15t10p7-14t9p6-14t9p6-

              e--15t10p7-15t10p7-14t9p6-15t10p7-14t9p6-15t9p6--14t9p6-15t10p7-

              e14t9p7--15t10p7--------

              e-14-15-17-19-20-22-22^-22^-22^---
Composição de Cliff Burton / James Hetfield / Lars Ulrich
Colaboração e revisão:
  • diego luciano
54.385 exibições
    • ½ Tom
    • A
    • Bb
    • B
    • C
    • Db
    • D
    • Eb
    • E
    • F
    • F#
    • G
    • Ab
  • Adicionar à lista

    0 comentários

    Ver todos os comentários

    Conseguiu tocar?

    3 Tocaram 3 Ainda não

    Grave um vídeo tocando To Live Is To Die e nos envie!

    00:00 / 00:00
    outros vídeos desta música
    repetir qualidade Automático
    Outros vídeos desta música
    00:00 / 00:00
    Automático

    Cifra Club Pro

    Aproveite o Cifra Club com benefícios exclusivos e sem anúncios
    Cifra Club Pro
    Aproveite o Cifra Club com benefícios exclusivos e sem anúncios
    OK