Cifra Club

Too Young To Fall In Love

Mötley Crüe

Tab de baixo: Versão 4
Album:Shout At The Devil
Bassist:Nikki Sixx
Tabber:Dev Fuld

I received a request for this kickass tune off of one of the most classic metal albums 
Shout At The Devil. This tab is for the most part, completely correct, but you have to 
carefully for some stuff.

Key:
x = Times a number
* = Let it ring
/ = Slide up
> = Slide down

Intro
F:-------------------------------------------|
C:-------------2*-0*-3*-2*--2*-0*-3*-2*-2-0--|
G:------------------------------------------2|
D:5x8-3x8-1x8--------------------------------|

Verse
F:---------------|
C:---------------|
G:0x8-----0x8----|
D:----1x8-----1x8|

Pre-Chorus
F:-----------------------|--------------------------|
C:-----------2-0---------|2-3-2-3-2-3/5*-5-3--------|
G:---------2-----2-0-----|-------------------5-3----|
D:0*-1*-0*-----------1*--|0-1-0-1-0-1-3*---------5-3|

Chorus
F:------------------------|
C:------------2*-0*-3*-2*-|
G:------------------------|
D:5x8-3x8-1x8-------------|

F:-------------------------------------------|
C:-------------2*-0*-3*-2*--2*-0*-3*-2*-2-0--|
G:------------------------------------------2|
D:5x8-3x8-1x8--------------------------------|

Verse

Pre-Chorus

Chorus Before Solo
F:------------------------|
C:------------2*-0*-3*-2*-|
G:------------------------|
D:5x8-3x8-1x8-------------|

F:-----------|
C:-----------|
G:-----------|
D:5x8-3x8-1x8|

Solo
F:----------|---------|----------|----------|
C:-------7--|---------|-------7--|-------7--|
G:7-7-7-7--8|7-7-7-5-8|7-7-7-7--8|7-7-7-7--8|
D:----------|---------|----------|----------|

F:---------|---------|---------|--------|
C:---------|------7--|---------|--------|
G:5-5-5-5-8|7-7-7---8|5-5-5-5-8|7-7-7-7-|
D:---------|---------|---------|--------|

Bridge
F:----|----|----|R|----|----|----|R|
C:----|----|----|E|----|----|----|E|
G:----|----|----|S|----|----|----|S|
D:17>5|17>5|17>5|T|17>5|17>5|17>5|T|

Verse

Pre-Chorus

End Chorus
F:------------------------|------------------------|
C:------------2*-0*-3*-2*-|------------2*-0*-3*-2*-|
G:------------------------|------------------------|
D:5x8-3x8-1x8-------------|5x8-3x8-1x8-------------|

F:------------------------|------------------------|
C:------------2*-0*-3*-2*-|------------2*-0*-3*-2*-|
G:----2x8-3x8-------------|----2x8-3x8-------------|
D:5x8---------------------|5x8---------------------|

F:------------------------|------------------------|
C:------------2*-0*-3*-2*-|------------2*-0*-3*-2*-|
G:----2x8-3x8-------------|----2x8-3x8-------------|
D:5x8---------------------|5x8---------------------|


That's it! Awesome, kickass tune, that needs to be played with some serious 'tude! Like 
said, listen carefully, and you'll get it down in no time. I have also already put in 
Any questions or comments, e-mail me at *
00:00 / 00:00
Outros vídeos desta música
Repetir
Outros vídeos desta música
Composição de Nikki Sixx
124 exibições

0 comentários

Ver todos os comentários

Conseguiu tocar?

0 Tocaram 0 Ainda não

Grave um vídeo tocando Too Young To Fall In Love e nos envie!

00:00 / 00:00

Cifra Club Pro

Aproveite o Cifra Club com benefícios exclusivos e sem anúncios
Cifra Club Pro
Aproveite o Cifra Club com benefícios exclusivos e sem anúncios
OK