Cifra Club

Aprenda

I Belong To You / Mon Coeur S'ouvre a Toi

Muse

Cifra: Principal (violão e guitarra)
Já pensou em usar uma coleção de roupas do Cifra Club? Responda as perguntas abaixo e nos ajude nessa missão! →
tom: Eb (forma dos acordes no tom de C) Capotraste na 3ª casa
(refrão 1)
-------6--6--------------|--------------------------|
-------8--8--8--8--------|--------------5--5--------|
-------------8--8--8--8--|--------6--6--6--6--5--6--|
-------------------8--8--|--------6--6--------------|
--6----------------------|--7--7--------------------|
-------------------------|--------------------------|

(refrão 2)
--6--6--6--6--6--6--6--6--|--------------------------|
--8--8--8--8--8--8--8--8--|--9--9--9--9--9--9--9--9--|
--8--8--8--8--8--8--8--8--|--8--8--8--8--8--8--8--8--|
--8--8--8--8--8--8--8--8--|--9--9--9--9--9--9--9--9--|
--6--6--6--6--6--6--6--6--|--6--6--6--6--6--6--6--6--|
--------------------------|--------------------------|

--7--7--7--7--7--7--7--7--|--7--7--7--7--7--7--7--7--|
--9--9--9--9--9--9--9--9--|--7--7--7--7--7--7--7--7--|
--9--9--9--9--9--9--9--9--|--8--8--8--8--8--8--8--8--|
--9--9--9--9--9--9--9--9--|--9--9--9--9--9--9--9--9--|
--7--7--7--7--7--7--7--7--|--9--9--9--9--9--9--9--9--|
--------------------------|--7--7--7--7--7--7--7--7--|

(verse)
--2--2--2--2--2--2--2--2--|--4--4--4--4--4--4--4--4--|
--2--2--2--2--2--2--2--2--|--5--5--5--5--5--5--5--5--|
--2--2--2--2--2--2--2--2--|--6--6--6--6--6--6--6--6--|
--4--4--4--4--4--4--4--4--|--6--6--6--6--6--6--6--6--|
--4--4--4--4--4--4--4--4--|--4--4--4--4--4--4--4--4--|
--2--2--2--2--2--2--2--2--|--------------------------|

(capo 3ª casa)

(intro) ( Fm Cm ) (3x)
        ( D Cm D Cm )

Woow! Hmmmm

Fm          Cm
When these pillars get pulled down
Fm         Cm
It will be you who wears the crown
Fm           Cm             D
And I'll owe everything to you
Cm       D    Cm
Whooaaa oooh whoaa oh

Fm       Cm
How much pain has cracked your soul?
Fm       Cm
How much love would make you whole?
Fm        Cm                 D      Gm
You're my guiding lightning strike
        Eb                 Bb                   D     Gm
I can't find the words to say, they're overdue
           Eb                 Bb                D
I'd travel half the world to say "I belong to you"
Cm       D    Cm
Whooaaa oooh whoaa oh

Fm       Cm
And she attacks me like a Leo
Fm      Cm
When my heart is split like Rio
Fm     Cm                     D    Gm
And I assure you my debts are real

        Eb                 Bb               D     Gm
I can't find the words to say When I'm confused
         Eb                 Bb               D
I travel half the world to say "You are my muse"
Cm       D    Cm     D
Whooaaa oooh whoaa oh

(fala em francês)

( Fm Cm ) (3x)
( D Gm Eb Bb D Gm )
Solo
-----------------------|-------------------------|
-----------------------|-------------------------|
--6------6--8--9----8--|-----6-------5--6--------|
-----------------------|----------6-----------6--|
-----------------------|-------------------9-----|
-----------------------|-------------------------|

------------------------|-----------------------------|
------------------------|-----------------------------|
------------------------|-----------------------------|
--7---------7--9--7--6--|-----6h-7p-6-----------------|
------------------------|--------------7--------3--4--|
---------9--------------|-----------------9--4--------|

--------------------------|-----------------------|
--------------------------|-----------------------|
--------------------------|-----------------------|
--------------------------|-----------------------|
--------------------------|-----------7-----7--9--|
--2------2--4-5-4--2--3-4-|--0-----------9--------|

-------------------|---------------------|
-------------------|---------------------|
-------------------|---------------------|
--5----------------|--6--------6----8----|
-------------------|---------------------|
-------------------|---------------------|

----------------------|--------------------------|
----------------------|--------------------------|
-----------6-------7--|--8h-9p-8-----------------|
--9-------------------|-----------9--------------|
----------------------|--------------9--6--------|
----------------------|--------------------------|

        Eb                 Bb                D   Gm
I can't find the words to say, they're overdue
           Eb                 Bb                D
I'd travel half the world to say "I belong to you"
Cm       D    Cm     D
Whooaaa oooh whoaa oh
Composição de Matthew Bellamy
Colaboração e revisão:
  • joyce arraba
  • Rafael Eduardo
  • Vinicius Moreira
7.525 exibições
    • ½ Tom
    • A
    • Bb
    • B
    • C
    • Db
    • D
    • Eb
    • E
    • F
    • F#
    • G
    • Ab
  • Adicionar à lista

    0 comentários

    Ver todos os comentários

    Conseguiu tocar?

    1 Tocaram 0 Ainda não

    Grave um vídeo tocando I Belong To You / Mon Coeur S'ouvre a Toi e nos envie!

    00:00 / 00:00
    Outros vídeos desta música
    Repetir Qualidade Automático
    Outros vídeos desta música
    00:00 / 00:00
    Automático

    Cifra Club Pro

    Aproveite o Cifra Club com benefícios exclusivos e sem anúncios
    Cifra Club Pro
    Aproveite o Cifra Club com benefícios exclusivos e sem anúncios
    OK