Cifra Club

Aprenda

Please, Please, Please, Let Me Get What I Want

Muse

Cifra: Principal (violão e guitarra)
Já pensou em usar uma coleção de roupas do Cifra Club? Responda as perguntas abaixo e nos ajude nessa missão! →
tom: A
(Cover do The smiths)

Intro : A5

A5        E5           A5 E5
Good times for a change
                  C#5
See, the luck I've had
          D5 
Can make a good man
     E5* 
Turn bad 
   D5            E5*
So please please please
      A5      G#5      D5
Let me, let me, let me
           E5
Let me get what I want
     F#5*  Riff 1
This time 
 
A5             E5              A5  E5
Haven't had a dream in a long time
                   C#5
See, the life I've had                           
           D5        E5*  
Can make a good man bad 
D5               E5*    
So for once in my life
      A5       G#5     D5 
Let me, get what I want
             E5*                      F#5*
Lord knows, it would be the first time
Riff 1                   
Lord knows, it would be the first time

Solo

Acordes  |-E-A-D-G-B-e-|
A5       |-5-7-7-X-X-X-|
E5       |-0-2-2-X-X-X-|
C#5      |-X-4-6-6-X-X-|
D5       |-X-5-7-7-X-X-|
E5*      |-X-7-9-9-X-X-|
G#5      |-4-6-6-X-X-X-|
F#5*     |-X-9-11-11-X-X-|

Riff 1
|----------------------------|    
|----------------------------|
|----------------------------|
|--11~----9--7~---9-7--6~----|
|----------------------------|
|----------------------------|   ~vibrato

Solo
  E  Q.     Q.      E     Q     Q      S S Q.      
-----------------------|--------------------------|
-----------------------|--------------------------|
------------9b------9--|-------11b----11-9-7------|
-----------------------|--------------------------|
-----------------------|--------------------------|

  Q.      H        E       H.            Q         Q.      H            E   
------------------------|-----------------------|--------------------------|
------------------------|-----------------------|--------------------------|
------------------------|-----------------------|--------------------------|
--9b------9--------9b~--|---------------11b~----|---------11brb~-----------|
------------------------|-----------------------|--------------------------|
------------------------|-----------------------|--------------------------|

  E   H.             E      H.              S   S   E    
------------------------|-------------------------------|
------------------------|-------------------------------|
------------------------|-------------------------------|
-----11b~---------------|--11b~------------11h-12p-11~--|
------------------------|-------------------------------|
------------------------|-------------------------------|

  Q.       S   S   H            W                     E  Q.       Q.       E    
-----------------------------|---------------------|---------------------------|
-----------------------------|---------------------|---------------------------|
-----------------------------|---------------------|---------------------------|
--9~------11h-12p-11~--------|--9b~----------------|-----9b~------9b~------9b--|
-----------------------------|---------------------|---------------------------|
-----------------------------|---------------------|---------------------------|

  S E  S E.   H         S    W                   E   Q     E  E.   S E  E    
--------------------------|-------------------|-----------------------------|
--------------------------|-------------------|-----------------------------|
--------------------------|-------------------|-----------------------------|
----7--9-9b---7~----------|-------------------|-----11~----9--7~---9-7--6~--|
--------------------------|-------------------|-----------------------------|
--------------------------|-------------------|-----------------------------|

  H        E  Q.                        
---------------------|
---------------------|
---------------------|
--------------7------|
--------------7------|
--------------5------|
Composição de Johnny Marr / Morrissey
Colaboração e revisão:
  • Alex Barbarioli
5.126 exibições
    • ½ Tom
    • A
    • Bb
    • B
    • C
    • Db
    • D
    • Eb
    • E
    • F
    • F#
    • G
    • Ab
  • Adicionar à lista

    0 comentários

    Ver todos os comentários

    Conseguiu tocar?

    0 Tocaram 0 Ainda não

    Grave um vídeo tocando Please, Please, Please, Let Me Get What I Want e nos envie!

    00:00 / 00:00
    Outros vídeos desta música
    Repetir Qualidade Automático
    Outros vídeos desta música
    00:00 / 00:00
    Automático

    Cifra Club Pro

    Aproveite o Cifra Club com benefícios exclusivos e sem anúncios
    Cifra Club Pro
    Aproveite o Cifra Club com benefícios exclusivos e sem anúncios
    OK