Cifra Club

All about her

New Found Glory

Tab de baixo: Principal
From            : Lowend B*
Bass Performance: All about her
Comments:       : i think all the parts are here
Strings: E ,A ,D ,G 
Symbols explanations:
  H: hammer on  P: pull off
====================

|  2 second intro thing                                                                
G -------------------------------------------------------------------------------
D -------------------------------------------------------------------------------
A --0--0--0--0--2----------------------------------------------------------------
E -------------------------------------------------------------------------------
>                                                                                

|   Riff 1        
G -------------------------------------------------------------------------------
D -------------------------------------------------------------------------------
A --------------------2--2--2--2-----2H-4--4--4--4-------------------------------
E --0--0--0--0--2H-4--------------4-----------------0H-4--5--5--5--5--7----------
>                                                                                

|  Riff 2   
G -------------------------------------------------------------------------------
D -------------------------------------------------------------------------------
A --------------------------------------2--0--0--4--2--2--2--2--0--0--0----------
E --0--0--0--0--4--2--2--2--2--2--2--2-------------------------------------------
>                                                                                

|  Riff 3                               
G -------------------------------------------------------------------------------
D -------------------------------------------------------------------------------
A --4--4--4--4--4--4--2--0--0--0--0--0--0--0--0----------------------------------
E -------------------------------------------------------------------------------
>                                                                                

|   riff that he plays 2 or 3 times after riff3
G ---------
D ---------
A --2--2---
E --------0
>
exibições 201
Composição: New Found Glory

0 comentários

mostrar mais comentários

Conseguiu tocar?

0 tocaram 0 ainda não

Grave um vídeo tocando All about her e mande pra gente!

00:00 / 00:00
outros vídeos desta música
repetir qualidade Automático
Outros vídeos desta música
00:00 / 00:00
Automático
OK