Cifra Club

Even In His Youth

Nirvana

Tab de baixo: Principal
exibições 2.906
Verse
G--------------------------------------|
D---------------6----------------------|
A----3--------------3------------------|
E--------3--4-4--------3-4-3-0-3-------|

Chorus
G--------------------------------------------------------------|
D---------------------------------------------5--5-5-----------|
A---------3--3-3--------5-5-5-5-7--7-7-3--3-3--------3-3-3-3---|
E--0--0-0--------3--3-3----------------------------------------|


Riff 2:
G------------------------7-----------|
D--------------7-8-9-9-7---9-8-7-----|
A--------7-8-9-------------------9-8-|
E---7-10-----------------------------|




(Verse)
Even in his youth (x3)
He was nothing
Kept his body clean (x3)
going nowhere
Daddy was ashamed (x3)
He was something
Disgrace the family name (x2)
The family name, he was something

(Chorus)
Read this form before you're through
I've got nothing left to prove
If I die before I wake
Hope I don't come back a slave 
(Riff 2)

(Verse)
Even in his youth (x3)
He was nothing
Kept his body clean (x3)
going nowhere
Daddy was ashamed (x2)
He was ashamed, he was nothing
Disgrace the family name (x2)
The family name, going nowhere

(Chorus)
Read this form before you're through
I've got nothing left to prove
If I die before I wake
Hope I don't come back a slave
(Riff 2)
Yeah

Guitar solo (Verse)

(Chorus)
Read this form before you're through
I've got nothing left to prove
If I die before I wake
Hope I don't come back again
(Riff 2)
I'm dying


Play the verse through the rest of the song


_______________________________________________________
Contribuição: Tiago(scoffed@msn.com)

0 comentários

    mostrar mais comentários

    Conseguiu tocar?

    0tocaram0ainda não

    Grave um vídeo tocando Even In His Youth e mande pra gente!

    00:00 / 00:00
    outros vídeos desta música
    repetirqualidadeautomática
    Outro vídeos desta música
      00:00 / 00:00
      automática
      OK