Cifra Club

Sua Justiça Prevalecerá

Nívea Soares

Cifra: Principal (violão e guitarra)
Tom: D
[Intro]

     Bm7                      A/C#            G         A         Bm7
Ele vem rasgando os céus, Ele vem para reinar e sua justiça prevalecerá
     Bm7                      A/C#            G         A         Bm7
Ele vem rasgando os céus, Ele vem para reinar e sua justiça prevalecerá
G         A         Bm7
E sua justiça prevalecerá

[Solo]

E|---------------------------|----------------------------|
B|---------------------------|----------------------------|
G|---------------------------|----------------------------|
D|--9b-7---------------------|--9b-7----------------------|
A|--9----9-7-9-9-9-7-9-9-7-9-|--9----9-7-9-9-9-7-9-9-7-9--|
E|---------------------------|----------------------------|

E|---------------------------------------|
B|--------10-12-12-10-12-12-10-12-10-12--|
G|--7--9--11-11-11-11-11-11-11-11-11-11--|
D|--5--7---------------------------------|
A|---------------------------------------|
E|---------------------------------------|

   Bm7                              A        D/F#                          G
Todas as obras serão provadas pelo fogo, e apenas o que é precioso permanecerá
 Bm7                           A
Tudo o que é abalável será abalado

E|-------------------|
B|-10-12-----10-12---|
G|-------11--------9-|
D|-------------------|
A|-------------------|
E|-------------------|

     D/F#                        G    A
E o reino eterno de cristo prevalecerá

E|-------------------------------------|
B|-----10--7-7-7-7-7-7-7-9-9-9-9-9-9-9-|
G|-6-7-----5-5-5-5-5-5-5-7-7-7-7-7-7-7-|
D|-------------------------------------|
A|-------------------------------------|
E|-------------------------------------|

     Bm7                      A/C#            G         A         Bm7
Ele vem rasgando os céus, Ele vem para reinar e sua justiça prevalecerá
     Bm7                      A/C#            G         A         Bm7
Ele vem rasgando os céus, Ele vem para reinar e sua justiça prevalecerá
G         A         Bm7
E sua justiça prevalecerá

   Bm7                              A        D/F#                          G
Todas as obras serão provadas pelo fogo, e apenas o que é precioso permanecerá
Bm7                           A
Tudo o que é abalável será abalado

E|-------------------|
B|-10-10-----10-12---|
G|-------11--------9-|
D|-------------------|
A|-------------------|
E|-------------------|

D/F#                              G    A
E o reino eterno de cristo prevalecerá

E|-------------------------------------|
B|-----10--7-7-7-7-7-7-7-9-9-9-9-9-9-9-|
G|-6-7-----5-5-5-5-5-5-5-7-7-7-7-7-7-7-|
D|-------------------------------------|
A|-------------------------------------|
E|-------------------------------------|

     Bm7                      A/C#            G         A         Bm7
Ele vem rasgando os céus, Ele vem para reinar e sua justiça prevalecerá
     Bm7                      A/C#            G         A         Bm7
Ele vem rasgando os céus, Ele vem para reinar e sua justiça prevalecerá
G         A         Bm7
E sua justiça prevalecerá

        Bm7
Arrependei-vos e crede no evangelho, arrependei-vos e crede no evangelho
          G          A           Bm7
Pois em breve Jesus vem para reinar
         Bm7
Deixe o homem mal os seus caminhos, e o pecador as suas obras
          G          A           Bm7
Pois em breve jesus vem para as nações julgar
        Bm7
Arrependei-vos e crede no evangelho, arrependei-vos e crede no evangelho
          G          A           Bm7
Pois em breve Jesus vem para reinar
         Bm7
Deixe o homem mal os seus caminhos, e o pecador as suas obras
          G          A           Bm7
Pois em breve jesus vem para as nações julgar

     Bm7                      A/C#            G         A         Bm7
Ele vem rasgando os céus, Ele vem para reinar e sua justiça prevalecerá
     Bm7                      A/C#            G         A         Bm7
Ele vem rasgando os céus, Ele vem para reinar e sua justiça prevalecerá
G         A         Bm7
E sua justiça prevalecerá
     Bm7                      A/C#            G         A         Bm7
Ele vem rasgando os céus, Ele vem para reinar e sua justiça prevalecerá
     Bm7                      A/C#            G         A         Bm7
Ele vem rasgando os céus, Ele vem para reinar e sua justiça prevalecerá
G         A         Bm7
E sua justiça prevalecerá
G         A         Bm7
E sua justiça prevalecerá
G         A         Bm7
E sua justiça prevalecerá
exibições 62.164
Acordes para:
    Composição: Nívea Soares Colaboração e revisão:

    0 comentários

    mostrar mais comentários

    Conseguiu tocar?

    3 tocaram 0 ainda não

    Grave um vídeo tocando Sua Justiça Prevalecerá e mande pra gente!

    00:00 / 00:00
    outros vídeos desta música
    repetir qualidade Automático
    Outros vídeos desta música
    00:00 / 00:00
    Automático
    OK