Cifra Club

Melô do Marinheiro

Os Paralamas do Sucesso

Tab de baixo: Principal
Melô do Marinheiro



G|-----------------------------------------------------
D|--------2/5--------------------4/5--4/5--------------
A|--3--3-------5--5--0--0--3--3------------------2--5--
E|-----------------------------------------3--3--------


1:19 (Quando dei por mim eu já estava em alto-mar...)

G|------------------------------
D|------------------------------
A|--3--0-5--0-3--0-3-5--0-3-5-0-
E|------------------------------


1:30 (Liverpool, Baltimore, Bangkok e Japão...)

G|-----------------------------------------------------
D|--------2/5--------------------4/5--4/5--------------
A|--3--3-------5--5--0--0--3--3------------------2--5--
E|-----------------------------------------3--3--------


1:42 (Entrei de gaiato no navio...)

G|------------------------------
D|------------------------------
A|--3--0-5--0-3--0-3-5--0-3-5-0-
E|------------------------------


1:54 (Liverpool, Baltimore, Bangkok e Japão...)

G|-----------------------------------------------------
D|--------2/5--------------------4/5--4/5--------------
A|--3--3-------5--5--0--0--3--3------------------2--5--
E|-----------------------------------------3--3--------


2:41 (Tá vendo essa sujeira bem debaixo dos seus pés...)

G|----------------------------
D|----------------------------
A|--3--3--5-5-5--3--3---------
E|---------------------3-3-3--


2:53 (Entrei de gaiato no navio...)

G|-----------------------------------------------------
D|--------2/5--------------------4/5--4/5--------------
A|--3--3-------5--5--0--0--3--3------------------2--5--
E|-----------------------------------------3--3--------




_______________________________________________________
Contribuição: Victor Feitosa Nóbile (victor_explosivo@hotmail.com)
00:00 / 00:00
Outros vídeos desta música
Repetir
Outros vídeos desta música
Composição de Bi Ribeiro
Colaboração e revisão:
  • Victor Nóbile
9.625 exibições

0 comentários

Ver todos os comentários

Conseguiu tocar?

2 Tocaram 0 Ainda não

Grave um vídeo tocando Melô do Marinheiro e nos envie!

Entre para oCifra Club PRO

Tenha acesso a benefícios exclusivos no App e no Site

  • Chega de anúncios

  • Prioridade de compra em lançamentos

  • Mais recursos no app do Afinador

  • Atendimento Prioritário

  • Descontos nos produtos Cifra Club

  • Ajude a produzir mais conteúdo

00:00 / 00:00

Cifra Club Pro

Aproveite o Cifra Club com benefícios exclusivos e sem anúncios
Cifra Club Pro
Aproveite o Cifra Club com benefícios exclusivos e sem anúncios
OK