Cifra Club

Aprenda

Another Brick In The Wall, Part 2

Pink Floyd

Cifra: Guitarra (violão e guitarra)
Tom: Dm
[Introdução] Dm


[Primeira Parte]

E|-----------------------------------------------------|
B|-----------------------------------------------------|
G|-7-9--10--9----7--9-10--9----------------------------|
D|-----------------------------------------------------|
A|-5-7---8--7----5--7--8--7----------------------------|
E|-----------------------------------------------------|

E|-----------------------------------------------------|
B|-----------------------------------------------------|
G|-7--9-10--9----7--9-10-------------------------------|
D|-----------------------------------------------------|
A|-5--7--8--7----5--7--8-------------------------------|
E|-----------------------------------------------------|

E|-----------------------------------------------------|
B|-----------------------------------------------------|
G|-7--9-10--9----7--9-10--9----------------------------|
D|-----------------------------------------------------|
A|-5--7--8--7----5--7--8--7----------------------------|
E|-----------------------------------------------------|

E|-----------------------------------------------------|
B|-----------------------------------------------------|
G|-7--9-10--9----7--9-10-------------------------------|
D|-----------------------------------------------------|
A|-5--7--8--7----5--7--8-------------------------------|
E|-----------------------------------------------------|

 Dm
We don't need no education
We don't need no thought control
No dark sarcasm in the classroom
Teachers, leave them kids alone


[Refrão]

   G
E|------------------------------------------|
B|------------------------------------------|
G|-12--------12-12-12-----------------------|
D|-----------12-12-12-----------------------|
A|-10--------10-10-10-----------------------|
E|------------------------------------------|

   F5   C5   D5   F5   C5   D5
E|------------------------------------------|
B|------------------------------------------|
G|------5----7---------5----7---------------|
D|-3----5----7----3----5----7---------------|
A|-3----3----5----3----3----5---------------|
E|-1--------------1-------------------------|

G
  Hey Teacher
                  Dm  (Passagem)
Leave them kids alone
F                       C
  All in all, it's just 
                      Dm
Another brick in the wall
F                         C
  All in all, you're just 
                      Dm
Another brick in the wall


   Dm        (Passagem)
E|-5---5------10--8--10--10-----8-8--7-7-7-5-----------|
B|-6---6------10--8--10--10-----8-8--8-8-8-6-----------|
G|-7---7------10--9--10--10-----9-9--7-7-7-5-----------|
D|-7-----7---------------------------------------------|
A|-5-----5---------------------------------------------|
E|-----------------------------------------------------|


[Segunda Parte]

                           Dm
We don't need no education
We don't need no thought control
No dark sarcasm in the classroom
Teachers, leave them kids alone


[Refrão]

   G
E|------------------------------------------|
B|------------------------------------------|
G|-12--------12-12-12-----------------------|
D|-----------12-12-12-----------------------|
A|-10--------10-10-10-----------------------|
E|------------------------------------------|

   F5   C5   D5   F5   C5   D5
E|------------------------------------------|
B|------------------------------------------|
G|------5----7---------5----7---------------|
D|-3----5----7----3----5----7---------------|
A|-3----3----5----3----3----5---------------|
E|-1--------------1-------------------------|

G
  Hey Teacher  
                Dm  (Passagem)
Leave us kids alone
F                         C
  All in all, you're just
                      Dm
Another brick in the wall
F                         C
  All in all, you're just 
                      Dm
Another brick in the wall


[Solo]

E|----------------------10-----------------------------|
B|-13p10----10-------10----13b15~---10-10--10----------|
G|-------12----12b14----------------10-10--10----------|
D|-----------------------------------------------------|
A|-----------------------------------------------------|
E|-----------------------------------------------------|

E|-----------------------------------------------------|
B|-13b15--b17r13~~--13p10------------------------------|
G|------------------------12--12b14r-------------------|
D|-----------------------------------------------------|
A|-----------------------------------------------------|
E|-----------------------------------------------------|

E|-----------------------------------------------------|
B|----------------------------10-----------------------|
G|---10p9----9--------12------10-----------------------|
D|-x------12---10/12------12---------------------------|
A|-----------------------------------------------------|
E|-----------------------------------------------------|

E|-----------------------------------------------------|
B|-10---------10--10------10--10------10--12--10b------|
G|-10-------x-10--10------10--10------10--12--10b------|
D|----12-------------12~---------12~-------------------|
A|-----------------------------------------------------|
E|-----------------------------------------------------|

E|---------13b15r---13p12-13p12------------------------|
B|-------x------------------------13b15rb17b18r13b15~\-|
G|-----x-----------------------------------------------|
D|---x-------------------------------------------------|
A|-x---------------------------------------------------|
E|-----------------------------------------------------|

E|-----------10----------------------------------------|
B|--------10----13p10---------------------------10-----|
G|-12b14--------------12--b14r12-10--12p10------10-----|
D|-----------------------------------------12------12--|
A|-----------------------------------------------------|
E|-----------------------------------------------------|

E|-----------------------------------------------------|
B|-----------------------------------------------------|
G|-----12p10-------------------------------------------|
D|-x-x-12p10-------------------------------------------|
A|-----------12-10-12p10\8--10p8------------/8---------|
E|-------------------------------10-8-10\------10-8-10\|

E|-----------------------------------------------------|
B|-----------------------------------------------------|
G|----------------9h10p9-------------------------------|
D|--------10--12---------12--12p10-----/12--12--12p10--|
A|-10/12---------------------------12------------------|
E|-----------------------------------------------------|

E|-----------------------------------------------------|
B|--------13b15--13b15rb17r13~~------------------------|
G|-10b-------------------------------------------------|
D|-----------------------------------------------------|
A|-----------------------------------------------------|
E|-----------------------------------------------------|

E|----15b17--13---------13-----15b17r15b17r15b17r15b17~|
B|-13-----------15--/15----15--------------------------|
G|-----------------------------------------------------|
D|-----------------------------------------------------|
A|-----------------------------------------------------|
E|-----------------------------------------------------|

E|-b17r15-------18b20--b20~~--20b22~~--20p17--20p17----|
B|---------15~-----------------------------------------|
G|-----------------------------------------------------|
D|-----------------------------------------------------|
A|-----------------------------------------------------|
E|-----------------------------------------------------|

E|-----------------------------------------------------|
B|-10--10--10b-----------------12-----------12--12\10~~|
G|-10--10--10b---------x-x-----12--x--------12--12\10~~|
D|--------------12~\---x-x-/12-----x-12----------------|
A|-----------------------------------------------------|
E|-----------------------------------------------------|

E|-----------------------------------------------------|
B|-----13p10-------------------------------------------|
G|-x-x-12p10-x-x---------------------------------------|
D|-x-x-------x-x-12~\----------------------------------|
A|---------------------x-x-/10-8p0-10p0-8--------------|
E|----------------------------------------10~\---------|
Composição de Roger Waters
Colaboração e revisão:
  • Vinícius Dias
  • Juninho Reis
2.611 exibições
    • ½ Tom
    • Am
    • Bbm
    • Bm
    • Cm
    • C#m
    • Dm
    • Ebm
    • Em
    • Fm
    • F#m
    • Gm
    • G#m
  • Adicionar à lista

    0 comentários

    Mostrar mais comentários
    00:00 / 00:00
    outros vídeos desta música
    repetir qualidade Automático
    Outros vídeos desta música
    00:00 / 00:00
    Automático
    Capítulos
    • Tocando a Música
    • Apresentação / Equipamentos
    • Configurações dos Pedais
    • Tocando Primeiro Parte
    • Padrão 1 - Primeiro Trecho
    • Padrão 1 - Segundo Trecho
    • Padrão 2
    • Padrão 3
    • Padrão 4
    • Tocando todos os padrões
    • Dicas do ritmo
    • Ensinando TAB dos versos
    • Acordes do Refrão
    • Tocando Refrão / Segunda Parte
    • Ensinando Guitarra Base 1
    • Tocando Guitarra Base 1
    • Ensinando Guitarra 2
    • Tocando Guitarra 2
    • Tocando Solo
    • Ensinando Solo Parte 1
    • Ensinando Solo Parte 2
    • Ensinando Solo Parte 3
    • Ensinando Solo Parte 4
    • Ensinando Solo Parte 5
    • Ensinando Solo Parte 6
    • Ensinando Solo Parte 7
    • Ensinando Solo Parte 8
    • Ensinando Solo Parte 9
    • Dicas do Solo
    • Tocando Solo Lento
    • Encerramento

    Cifra Club Pro

    Aproveite o Cifra Club com benefícios exclusivos e sem anúncios
    7 dias grátis
    Cifra Club Pro
    Aproveite o Cifra Club com benefícios exclusivos e sem anúncios
    7 dias grátis
    OK