Cifra Club

Aprenda

Another Brick In The Wall, Part 2

Pink Floyd

Cifra: Solo (violão e guitarra)
tom: C
(Parte 1)

E|----------------------10------------------|
B|-13p10----10-------10----15b17~--10-10--10|
G|-------12----12b14---------------10-10--10|
D|------------------------------------------|
A|------------------------------------------|
E|------------------------------------------|

E|------------------------------------------|
B|-13b15--b17r13~~--13p10-------------------|
G|------------------------12--12b14r--------|
D|------------------------------------------|
A|------------------------------------------|
E|------------------------------------------|

E|------------------------------------------|
B|----------------------------10------10----|
G|---10p9----9--------12------10------10----|
D|-x------12---10/12------12-------------12-|
A|------------------------------------------|
E|------------------------------------------|

E|------------------------------------------|
B|---10--10------10--10------10--12--10b----|
G|-x-10--10------10--10------10--12--10b----|
D|----------12~---------12~-----------------|
A|------------------------------------------|
E|------------------------------------------|

(Parte 2)

E|---------13b15r----13p12-13p12------------|
B|-------x----------------------------------|
G|-----x------------------------------------|
D|---x--------------------------------------|
A|-x----------------------------------------|
E|------------------------------------------|

E|------------------------------------------|
B|-13b15rb17b18r13b15~\---------------------|
G|------------------------------------------|
D|------------------------------------------|
A|------------------------------------------|
E|------------------------------------------|

(Parte 3)

E|-----------10-----------------------------|
B|--------10----13p10-----------------------|
G|-12b14--------------12--b14r12-10--12p10--|
D|------------------------------------------|
A|------------------------------------------|
E|------------------------------------------|

E|------------------------------------------|
B|------10----------------------------------|
G|------10--------12p10---------------------|
D|-12-x----12-x-x-12p10---------------------|
A|----------------------12-10-12p10\8-------|
E|------------------------------------------|

E|------------------------------------------|
B|------------------------------------------|
G|------------------------------------------|
D|------------------------------------------|
A|-10p8-------------/8----------------------|
E|------10-8-10\-------10-8-10\-------------|

(Parte 4)

E|------------------------------------------|
B|------------------------------------------|
G|----------------10\9----------------------|
D|--------10--12-------12--12p10-----/12-12-|
A|-10/12-------------------------12---------|
E|------------------------------------------|

E|------------------------------------------|
B|--------------13b15--13b15rb17r13~~-------|
G|-------10b--------------------------------|
D|-12p10------------------------------------|
A|------------------------------------------|
E|------------------------------------------|

(Parte 5)

E|----15b17----13-----------13--------------|
B|-13-------------15----/15----15-----------|
G|------------------------------------------|
D|------------------------------------------|
A|------------------------------------------|
E|------------------------------------------|

E|-15b17r15b17r15b17r15b17~~---b17r15-------|
B|-------------------------------------15~--|
G|------------------------------------------|
D|------------------------------------------|
A|------------------------------------------|
E|------------------------------------------|

E|-18b20--b20~~--20b22~~--20p17--20p17------|
B|------------------------------------------|
G|------------------------------------------|
D|------------------------------------------|
A|------------------------------------------|
E|------------------------------------------|

(Parte 6)

E|------------------------------------------|
B|-----10----10------10b--------------------|
G|-x-x-10--x-10--x-x-10b--------------------|
D|-x-x-----x-----x-x------12~~\-------------|
A|------------------------------------------|
E|------------------------------------------|

E|------------------------------------------|
B|---------12-----------12---12\10~~--------|
G|-x-x-----12--x----x-x-12-x-12\10~~----x-x-|
D|-x-x-/12-----x-12-x-x----x------------x-x-|
A|------------------------------------------|
E|------------------------------------------|

E|------------------------------------------|
B|-13p10------------------------------------|
G|-12p10-x-x--------------------------------|
D|-------x-x-12~\---------------------------|
A|-----------------x-x-/10-8p0-10p0-8-------|
E|------------------------------------10~\--|
Composição de Roger Waters
Colaboração e revisão:
  • Vinícius Dias
64.239 exibições
    • ½ Tom
    • A
    • Bb
    • B
    • C
    • Db
    • D
    • Eb
    • E
    • F
    • F#
    • G
    • Ab
  • Adicionar à lista

    0 comentários

    Ver todos os comentários
    00:00 / 00:00
    Outros vídeos desta música
    Repetir Qualidade Automático
    Outros vídeos desta música
    00:00 / 00:00
    Automático
    Capítulos
    • Tocando Solo
    • Dicas iniciais / Equipamentos
    • Solo - Parte 1 de 6 (70bpm)
    • Solo - Parte 2 de 6 (70bpm)
    • Solo - Parte 3 de 6 (70bpm)
    • Solo - Parte 4 de 6 (70bpm)
    • Solo - Parte 5 de 6 (70bpm)
    • Solo - Parte 6 de 6 (70bpm)
    • Solo - Parte 1 de 6 (88bpm)
    • Solo - Parte 2 de 6 (88bpm)
    • Solo - Parte 3 de 6 (88bpm)
    • Solo - Parte 4 de 6 (88bpm)
    • Solo - Parte 5 de 6 (88bpm)
    • Solo - Parte 6 de 6 (88bpm)
    • Encerramento
    • Ficha técnica

    Cifra Club Pro

    Aproveite o Cifra Club com benefícios exclusivos e sem anúncios
    Cifra Club Pro
    Aproveite o Cifra Club com benefícios exclusivos e sem anúncios
    OK