Cifra Club

Aprenda

Brinquedo Torto

Pitty

Cifra: Versão 3 (violão e guitarra)
tom: C
INTRODUÇÃO

e|--------------------------------------------------|(Esse não é o n° de vez que se tocar cada nota)
B|--------------------------------------------------|
G|--141414141414141414-121212121212---1414141414----|
D|--141414141414141414-121212121212---1414141414----|(depois você imenda pro solo abaixo)

solo de intro:
e|---------15-15-12----|  |------------------------------------------------|
B|-----------------13--|6x|---------------13------13------13---14--15------|
G|----12-14------------|  |----12-14-12-14---12-14---12-14---14--14--------|
D|--14-----------------|  |--14--------------------------------------------|

Solinho que acompanha a música até a Refrão:
e|---------------------------------||--------------------------------------|(Esse não é o n°
B|--5-5-5-5-5-5-5-5-5---3-3-3-3-3--||-5-5-5-5-5-5-8-8-5-5-5-5---3-3-3-3-3--|de vez que se toca
G|---7-7-7-7-7-7-7-7-7---5-5-5-5-5-||--7-7-7-7-7-7-7-7-7-7-7-7---5-5-5-5-5-|cada nota, só ouvindo)
D|---------------------------------||--------------------------------------|

Am                       G
Esqueci as regras do jogo
                    Am 
E não posso mais jogar
Am               
Veio escrito na embalagem
G                  Am
"Use e saia pra agitar"
Am                           e|-----------------|
Vou com os outros pro abate      B|-5---------------|
G                 Am             G|--7-5-4-7-5-4-5--|
O meu dono vai lucrar            
Am            
Seja cedo ou seja tarde
G                  Am 
Quando isso vai mudar?       2x(A5 C5 B5 A5 G5 B5 C5 A5) (ouça a música pra saber o tempo de troca 
                                                         de cada acorde)

Am 
Não me diga: "eu te disse"
G                  Am 
Isso não vai resolver
Am                         
Se eu explodo o meu violão
G                   Am 
O que mais posso fazer?
Am                        
Isso é tão desconfortável
G                  Am 
Me ensinaram a fingir
Am                    
E se eu for derrotado
G                   Am 
Nem sei como me render      2x(A5 C5 B5 A5 G5 B5 C5 A5) 
 
Am                 G             Am
E eu me vendo como um brinquedo torto
Am                 G
E eu me vendo como uma estátua 
 
 
Am                       G
Esqueci as regras do jogo
                    Am 
E não posso mais jogar
Am               
Veio escrito na embalagem
G                  Am
"Use e saia pra agitar"
Am                          
Vou com os outros pro abate
G                 Am 
O meu dono vai lucrar
Am            
Seja cedo ou seja tarde
G                  Am 
Quando isso vai mudar? 
 
 
Am                 G             Am
E eu me vendo como um brinquedo torto
Am                 G
E eu me vendo como uma estátua
Composição de Pitty
Colaboração e revisão:
  • Gleno Silva
3.127 exibições
    • ½ Tom
    • A
    • Bb
    • B
    • C
    • Db
    • D
    • Eb
    • E
    • F
    • F#
    • G
    • Ab
  • Adicionar à lista

    0 comentários

    Ver todos os comentários

    Conseguiu tocar?

    0 Tocaram 0 Ainda não

    Grave um vídeo tocando Brinquedo Torto e nos envie!

    00:00 / 00:00
    outros vídeos desta música
    repetir qualidade Automático
    Outros vídeos desta música
    00:00 / 00:00
    Automático

    Cifra Club Pro

    Aproveite o Cifra Club com benefícios exclusivos e sem anúncios
    Cifra Club Pro
    Aproveite o Cifra Club com benefícios exclusivos e sem anúncios
    OK