Cifra Club

Aprenda

Monkeys Gone To Heaven

Pixies

Tab de baixo: Principal
================================================================
================================================================

Tabbed By: Noah Ray
Email: *

Tuning: Standard

This song is really easy to play.

Intro
|-----------|
|-----------|
|--------0--|
|--0-2-2----|

Verses                 1st time           2nd and 3rd
|---------------------|------------------|----------|
|---------------------|------------------|----------|
|-5-5-5--2-2-2--5-5-5-|-------------0-0--|-------0--|
|---------------------|-0-0-2-2-2-2------|-0-2-2----|

Chorus/ Solo
|----------------------------|----------------------------|
|----------------------------|----------------------------|
|-55555555-22222222-55555555-|-------------0-0-|-------0--|
|----------------------------|--0-0-2-2-2-2----|-0-2-2----|

Bridge (If Man is 5)
|-----------------------|
|-----------------------|
|--5~--2~--5~--------0--|
|--------------0-2-2----|

Play Chorus to End from "Than God is Seven" 

End Note
|------|
|------|
|--5~--|
|------|


Intro 
Verse 
Chorus 
Verse
Chorus
Bridge
Chorus 
End

Composição de Black Francis
1.644 exibições

0 comentários

Ver todos os comentários

Conseguiu tocar?

0 Tocaram 0 Ainda não

Grave um vídeo tocando Monkeys Gone To Heaven e nos envie!

00:00 / 00:00
outros vídeos desta música
repetir qualidade Automático
Outros vídeos desta música
00:00 / 00:00
Automático

Cifra Club Pro

Aproveite o Cifra Club com benefícios exclusivos e sem anúncios
Cifra Club Pro
Aproveite o Cifra Club com benefícios exclusivos e sem anúncios
OK