Cifra Club

Aprenda

Good Morning Vietnam

Rage Against The Machine

Cifra: Principal (violão e guitarra)
tom: G
E|-------------------------------------------|(Play 8 times)
B|-------------------------------------------|
G|----------------------------------------9--|b
D|----------------------------------------9--|b
A|99-7-9--99-7-9--99-7-9-12-9-7-9--99-7-9----|
E|99-7-9--99-7-9--99-7-9-12-9-7-9--99-7-9----|

Next Part 0:46

E|-----------------------------------------------|(Reapeat this through the singing,8x)
B|-----------------------------------------------|
G|-----------------------------------------------|
D|-----------------------------------------------|
A|-----------------------------------------------|
E:10-8-10-8-10--10-8-10-13-10-8-10-8-5--1-1--3-3-|

1:26

E|-------------------------------------------|(Play 2 times)
B|-------------------------------------------|
G|----------------------------------------9--|b
D|----------------------------------------9--|b
A|99-7-9--99-7-9--99-7-9-12-9-7-9--99-7-9----|
E|99-7-9--99-7-9--99-7-9-12-9-7-9--99-7-9----|

1:36

E|-----------------------------------------------|(Reapeat this through the singing,8x)
B|-----------------------------------------------|
G|-----------------------------------------------|
D|-----------------------------------------------|
A|-----------------------------------------------|
E:10-8-10-8-10--10-8-10-13-10-8-10-8-5--1-1--3-3-|

2:17
Very Hard solo. Bass continues under solo.

3:19

E|-----------------------------------------------|(Reapeat this through the singing,8x)
B|-----------------------------------------------|
G|-----------------------------------------------|
D|-----------------------------------------------|
A|-----------------------------------------------|
E:10-8-10-8-10--10-8-10-13-10-8-10-8-5--1-1--3-3-|

3:59

E|----------------|(Repeat 4x)
B|----------------|
G|----------------|
D|----------------|
A|----------------|
E:5-5-3-5-10b-8-3-|

4:09

E|-------------------------------------------|(Repeat 4 times)
B|-------------------------------------------|
G|----------------------------------------9--|b
D|----------------------------------------9--|b
A|99-7-9--99-7-9--99-7-9-12-9-7-9--99-7-9----|
E|99-7-9--99-7-9--99-7-9-12-9-7-9--99-7-9----|

Compositor não encontrado.
Colaboração e revisão:
  • Élison Duarte
1.330 exibições
    • ½ Tom
    • A
    • Bb
    • B
    • C
    • Db
    • D
    • Eb
    • E
    • F
    • F#
    • G
    • Ab
  • Adicionar à lista

    0 comentários

    Ver todos os comentários

    Conseguiu tocar?

    0 Tocaram 0 Ainda não

    Grave um vídeo tocando Good Morning Vietnam e nos envie!

    00:00 / 00:00
    Outros vídeos desta música
    Repetir Qualidade Automático
    Outros vídeos desta música
    00:00 / 00:00
    Automático

    Cifra Club Pro

    Aproveite o Cifra Club com benefícios exclusivos e sem anúncios
    Cifra Club Pro
    Aproveite o Cifra Club com benefícios exclusivos e sem anúncios
    OK