Cifra Club

Aprenda

Esporrei Na Manivela

Raimundos

Cifra: Principal (violão e guitarra)
tom: C
 
E|----0---------------------------------------------------------------------|
B|-3~--0-------3~--5-5-5-5-------8-8--10-10-10-10-10-12-13-12-10-10-12-13---|
G|-2~---0--2---2~--4-4-4-4/9-9-9-9-9--9--9--9--9--9--11-12-11-9--9--11-12---|
D|-0~----0--0--0~-----------------------------------------------------------|
A|--------0--0------------------------------------------------------------0~|
D|------------------------------------------------------------------------0~|

E|-----------------------------------|
B|-------------3~--------------------|
G|-------------2~--------------------|
D|-3-0---------0~--------------------|
A|----3-0----------------------------|
D|-------3-0-0-----------------------|

[Riff 1]

E|-----------------------------------|
B|-----------------------------------|
G|-----------------------------------| 
D|-----------------------------------|
A|-0-0-5-5-3-3-----------------------|
D|-0-0-5-5-3-3-----------------------|

[Riff 2]

E|-------------------------------------|
B|-------------------------------------|
G|-------------------------------------|
D|-------------------------------------|
A|-5-5-0-6-6-5-5-3-3--5-6-6-6-5-6-6-6--|
D|-----0-6-6-5-5-3-3--5-6-6-6-5-6-6-6--|
    
[Riff 3]

E|-------------------------------------|
B|-------------------------------------|
G|-------------------------------------|
D|-------------------------------------|
A|-0-6-6-5-5-3-3--5-5-5-6-6-6----------|
D|-0-6-6-5-5-3-3--5-5-5-6-6-6----------|
 
[Riff 4]

E|-------------------------------------|
B|-------------------------------------|
G|-------------------------------------|
D|-------------------------------------|
A|-0-6-6-5-5-3-3--5-5-6-6--------------|
D|-0-6-6-5-5-3-3--5-5-6-6--------------|

[Riff 5]

E|-------------------------------------|
B|-------------------------------------|
G|-------------------------------------|
D|-------------------------------------|
A|-0-6-6-5-5-3-3--0-0------------------|
D|-0-6-6-5-5-3-3--0-0------------------|
 

"Entrei no trem,esporrei na manivela cobrador filha da puta me jogou 
 pela janela. Caí de quatro com o caralho arregalado, e uma véia muito
 escrota me levou pro delegado. O delegado tinha cara de viado e me
 mandou tomar no cú. Tomei no cú mas tomei no cú errado, quando eu menos
 percebi era o cú do delegado."

[Riff 6]

E|----------------------------------------------------------|
B|----------------------------------------------------------|
G|----------------------------------------------------------|
D|----------------------------------------------------------|
A|-0-4-5-6-5-4--0-4-5-6-5-4--0-4-5-6-5-4-6-5-4-6-5-4-6-5-4--|
D|-0-4-5-6-5-4--0-4-5-6-5-4--0-4-5-6-5-4-6-5-4-6-5-4-6-5-4--|

"O coletivo é muito bom para sarrar, pois o povo aglomerado sempre
 tende a se esfregar. Com as nega véia é perna aqui perna acolá, e se
 a xereca é mal lavada faz a ricota suar."

[Riff 7]

E|----------------------|
B|----------------------|
G|----------------------|
D|----------------------|
A|----------------------|
D|-4-5-4-5-4-5-4-5-4-5--|

"Se é nos calombos ou nas freiadas, de é nas curvas ou nas entradas
 são situações propícias para o ato de sarrar. No coletivo o que manda
 é a lei do pau, quem esfrega nos outros, quem não tem só se dá mal."

[Riff 8]

E|-----------------------------------------------------|
B|-10-12-13-12-10-8-7-8-7--10-12-13-12-10-8-7-8-7-7----|
G|-7--9--10-9--7--5-4-5-4--7--9--10-9--7--5-4-5-4-4-7--|
D|--------------------------------------------------7--|
A|-----------------------------------------------------|
D|-----------------------------------------------------|

[Riff 9]

E|-----------------------------------------|
B|-----------------------------------------|
G|-----------------------------------------|
D|-----------------------------------------|
A|-12-11-10-9-10-11-10-9--5-4-3-2-3-4-3-2--| 
D|-12-11-10-9-10-11-10-9--5-4-3-2-3-4-3-2--|                        

E|-------------------------------------------------------------------------|
B|----------------------------------------------------------------10-13-15-|
G|7-9-10-9-10-9-12-10-9--7-9-10-10-5-7--7-9-10-9-10-9-12-12-10-12-9--12-14-|
D|7-9-10-9-10-9-12-10-9--7-9-10-10-5-7--7-9-10-9-10-9-12-12-10-12-7--10-12-|
A|5-7-8--7-8--7-10-8--7--5-7-8--8--3-5--5-7-8--7-8--7-10-10-8--10----------|
D|-------------------------------------------------------------------------|

[Solo]

E|-10-8-7-5----------------------------------|
B|---------8-7-5-----------------------------|
G|--------------7----------------------------|
D|-------------------------------------------|
A|-------------------------------------------|
D|-------------------------------------------|
Composição de Bonolo / Digão / Fred / Guilherme / Paulinho Mattos / Rodolfo
Colaboração e revisão:
  • Marcos Paulo
147.819 exibições
    • ½ Tom
    • A
    • Bb
    • B
    • C
    • Db
    • D
    • Eb
    • E
    • F
    • F#
    • G
    • Ab
  • Adicionar à lista

    0 comentários

    Ver todos os comentários

    Conseguiu tocar?

    5 Tocaram 1 Ainda não

    Grave um vídeo tocando Esporrei Na Manivela e nos envie!

    00:00 / 00:00
    Outros vídeos desta música
    Repetir Qualidade Automático
    Outros vídeos desta música
    00:00 / 00:00
    Automático

    Cifra Club Pro

    Aproveite o Cifra Club com benefícios exclusivos e sem anúncios
    Cifra Club Pro
    Aproveite o Cifra Club com benefícios exclusivos e sem anúncios
    OK