Cifra Club

Aprenda

La Misma Mujer

Rata Blanca

Cifra: Principal (violão e guitarra)
tom: E
RIFF 1
             A  B                 A    B        en las últimas hace   A   B  C 
 e|---------------------------------------------------------------------------------|
 B|---------------------------------------------------------------------------------|
 G|----------2--4-----------------2----4------------------------------2---4--5------|
 D|----------2--4-----------------2----4------------------------------2---4--5------|
 A|---0000----------00000000000-----------------------------------------------------|
 E|---------------------------------------------------------------------------------|


La parte de: "... pero tan solo si es también ... su decisión ..."
son dos violas, una creo que hace progresión de A y después de E


 A5  -  C5  -  E5  -  B5 


El arreglo que suena al estribillo es este:

 e|---------------------------------------------------------------------------------|
 B|---------------------------------------------------------------------------------|
 G|---------------------------------------------------------------------------------|
 D|---------------------------------------------------------------------------------|
 A|--------5^2----------------------------------------------------------------------|
 E|-------------5^3^2---------------------------------------------------------------|


ESTRIBILLO :

A5  -  C5  -  E5  -  B5  -  (C5)  -  * 2   C5 lo hace la primera vez; la segunda va al
                                           Riff, que es el mismo todo el tema, algunos
                                           de estos acordes los machaca y los adorna,
                                           es cuestion de escuchar el tema.

FINAL:

C5 - B5   Se puede tocar todo el acorde o solo la 5ta y la 8va dejando afuera la tónica,
          como en el primer riff. Es decir:

         C5 ó C5      B5 ó B5
 e|---------------------------------------------------------------------------------|
 B|---------------------------------------------------------------------------------|
 G|------5-----5------4-----4-------------------------------------------------------|
 D|------5------5-----4-----4-------------------------------------------------------|
 A|------3------------2-------------------------------------------------------------|
 E|---------------------------------------------------------------------------------|


Saludos y disculpen la desprolijidad.

Damián.
Composição de Walter Giardino
Colaboração e revisão:
  • Yuri Rocha
1.991 exibições
    • ½ Tom
    • A
    • Bb
    • B
    • C
    • Db
    • D
    • Eb
    • E
    • F
    • F#
    • G
    • Ab
  • Adicionar à lista

    0 comentários

    Ver todos os comentários

    Conseguiu tocar?

    0 Tocaram 0 Ainda não

    Grave um vídeo tocando La Misma Mujer e nos envie!

    00:00 / 00:00
    Outros vídeos desta música
    Repetir Qualidade Automático
    Outros vídeos desta música
    00:00 / 00:00
    Automático

    Cifra Club Pro

    Aproveite o Cifra Club com benefícios exclusivos e sem anúncios
    Cifra Club Pro
    Aproveite o Cifra Club com benefícios exclusivos e sem anúncios
    OK