Cifra Club

Suck My Kiss

Red Hot Chili Peppers

Cifra: Principal (violão e guitarra)
Selo Cifra Club: esta cifra foi revisada para atender aos critérios oficiais da nossa Equipe de Qualidade.
tom: A
Intro 2x:

E|---------------------------------------------------
B|---------------------------------------------------
G|-------0-------------------------------------------  (3x)
D|-------0-------------------------------------------
A|-------1-------------------------------------------
E|--1—3-----1---3--x-x-------------------------------

E|---------------------------------------------------
B|---------------------------------------------------
G|-------------------------7/9-9\--------------------
D|---------3-3-3-3-5/7-7-7---------------------------
A|-3h5-5-5-------------------------------------------
E|---------------------------------------------------

Yeah, oh yeah
Yeah, oh yeah
Hit me

Primeira Parte:
E|---------------------------------------------------
B|---------------------------------------------------
G|--------------------------------------------------- (4x)
D|---------------------------------------------------
A|---------------------------------1h3p1-------------
E|--1-3—3-1--3--3---1-3--3-1--3--3-------1-----------

E|----4-------4-----5--6\----------------------------
B|----4-------4-----5--6\----------------------------
G|---------------------------------------------------
D|-3-------3-----4-----------------------------------
A|-3-------3-----4-----------------------------------
E|---------------------------------------------------

E|---------------------------------------------------
B|---------------------------------------------------
G|---------------------------------------------------
D|---------------------------------------------------
A|----------------------------1h3p1------------------
E|-3-1--3--3---1-3--3-1--3--3-------1----------------

E|---------------------------------------------------
B|---------------------------------------------------
G|---------------------------------------------------
D|---------------------------------------------------
A|--------------------------------1h3p1--------------
E|-1-3—3-1--3--3---1-3--3-1--3--3-------1------------

E|----4-------4-----5--6\----------------------------
B|----4-------4-----5--6\----------------------------
G|---------------------------------------------------
D|-3-------3-----4-----------------------------------
A|-3-------3-----4-----------------------------------
E|---------------------------------------------------

E|---------------------------------------------------
B|---------------------------------------------------
G|-------------------1-------------------------------
D|-------------------0-------------------------------
A|-------------------1-------------------------------
E|-3-1--3--3---1--3----------------------------------

Should have been, could have been
Would have been dead
If I didn't get a message
Goin' thru' my head
I am what I am
Most motherfuckers
Don't give a damn
Aw baby think you can
Be my girl, I'll be your man
Someone full of fun
Do me 'till I'm well done
Little Bo peep
Cumin' from my stun gun
Beware... take care
Most motherfuckers
Have a cold ass stare
Aw baby please be there
Suck my kiss cut me my share

Primeiro Refrão: E5  G/D  D4  A
E|--------3-3-3-3--3-3-3-------------------
B|--------3-3-3-3--3-3-3--2--2-------------
G|--------4-2-2-4--2-2-2--2--2-------------
D|-2--2---0-0-0-0--0-0-0--2--2-------------
A|-2--2-------------------0--0-------------
E|-0--0------------------------------------
                               H.A
E|--------3-3-3-3--3-3-3-------------------
B|--------3-3-3-3--3-3-3--2--2---3----0----
G|--------4-2-2-4--2-2-2--2--2---4br--0----
D|-2--2---0-0-0-0--0-0-0--2--2-------------
A|-2--2-------------------0--0-------------
E|-0--0------------------------------------

E|--------3-3-3-3--3-3-3-------------------
B|--------3-3-3-3--3-3-3--2--2-------------
G|--------4-2-2-4--2-2-2--2--2-------------
D|-2--2---0-0-0-0--0-0-0--2--2-------------
A|-2--2-------------------0--0--2--2--2--2-
E|-0--0-------------------------0--0--0--0-

E|-----------------------------------------
B|--------3-3-3-3--3-3-3--2--2-------------
G|--------4-2-2-4--2-2-2--2--2-------------
D|-2--2---0-0-0-0--0-0-0--2--2-------------
A|-2--2-------------------0--0-------------
E|-0—0-------------------------------------

Hit me you can't hurt me
Suck my kiss
Kiss me please pervert me
Stick with this
Is she talking dirty
Give to me sweet sacred bliss
Your mouth was made to suck my kiss

(Segunda Parte - Igual a Primeira Parte)

Look at me can't you see
All I really want to be
Is free from a world
That hurts me
I need relief
Do you want me girl
To be your thief
Aw baby just for you
I'd steal anything that you want me to
K - I - S - S - I - N - G
Chicka chicka dee
Do me like a banshee
Low brow is how
Swimming in the sound
Of bow wow wow
Aw baby do me now
Do me here I do allow

Segundo Refrão:
E|--------3-3-3-3--3-3-3-------------------
B|--------3-3-3-3--3-3-3--2--2-------------
G|--------4-2-2-4--2-2-2--2--2-------------
D|-2--2---0-0-0-0--0-0-0--2--2-------------
A|-2--2-------------------0--0-------------
E|-0--0------------------------------------

E|--------3-3-3-3--3-3-3-------------------
B|--------3-3-3-3--3-3-3--2--2---3----0----
G|--------4-2-2-4--2-2-2--2--2---4br--0----
D|-2--2---0-0-0-0--0-0-0--2--2-------------
A|-2--2-------------------0--0-------------
E|-0--0------------------------------------

E|--------3-3-3-3--3-3-3-------------------
B|--------3-3-3-3--3-3-3--2--2-------------
G|--------4-2-2-4--2-2-2--2--2-------------
D|-2--2---0-0-0-0--0-0-0--2--2--2----2-----
A|-2--2-------------------0--0--2----2-----
E|-0--0-------------------------0----0-----

E|-----------------------------------------
B|--------3-3-3-3--3-3-3--2--2-------------
G|--------4-2-2-4--2-2-2--2--2---1---------
D|-2--2---0-0-0-0--0-0-0--2--2---0---------
A|-2--2-------------------0--0---1---------
E|-0--0------------------------------------

Hit me you can't hurt me
Suck my kiss
Kiss me please pervert me
Stick with this
Is she gonna curtsy?
Give to me sweet sacred bliss
That mouth was made to...

Solo:
E|---------------------------------------------------
B|---------------------------------------------------
G|-15h17p0-0-0-0-0-15h17p0-0-0-0-0-15h17p0-0-0-------   (3x)
D|---------------------------------------------------
A|---------------------------------------------------
E|---------------------------------------------------

E|---------------------------------------------------
B|---------------------------------------------------
G|-10h12-12-12-10h12-12-12-10h12-12-12-10h12-12-12---
D|---------------------------------------------------
A|---------------------------------------------------
E|---------------------------------------------------

E|-10--10--10--10--10--10---12p10-10-10--------------
B|-11b-11b-11b-11b-11b-11b---------------------------
G|---------------------------------------------------  (2x)
D|---------------------------------------------------
A|---------------------------------------------------
E|---------------------------------------------------

E|-10--10--10--10--10--10--12p10-13..-15..-17..-18..-
B|-11b-11b-11b-11b-11b-11b---------------------------
G|---------------------------------------------------
D|---------------------------------------------------
A|---------------------------------------------------
E|---------------------------------------------------

Terceira Parte:
E|---------------------------------------------------
B|---------------------------------------------------
G|--------------------------------------------------- (2x)
D|---------------------------------------------------
A|---------------------------------1h3p1-------------
E|--1-3—3-1--3--3---1-3--3-1--3--3-------1-----------

E|---------------------------------------------------
B|---------------------------------------------------
G|---------------------------------------------------
D|-3-------3-----4-----------------------------------
A|-3-------3-----4-----------------------------------
E|---------------------------------------------------

E|---------------------------------------------------
B|---------------------------------------------------
G|---------------------------------------------------
D|---------------------------------------------------
A|---------------------------------1h3p1-------------
E|--1-3—3-1--3--3---1-3--3-1--3--3-------1-----------

E|---------------------------------------------------
B|---------------------------------------------------
G|---------------------------------------------------
D|---------------------------------------------------
A|--------------------------------1h3p1--------------
E|-1-3—3-1--3--3---1-3--3-1--3--3-------1------------

E|----4-------4-----5--6\----------------------------
B|----4-------4-----5--6\----------------------------
G|---------------------------------------------------
D|-3-------3-----4-----------------------------------
A|-3-------3-----4-----------------------------------
E|---------------------------------------------------

E|---------------------------------------------------
B|---------------------------------------------------
G|-------------------1-------------------------------
D|-------------------0-------------------------------
A|-------------------1-------------------------------
E|-3-1--3--3---1--3----------------------------------

Should have been, could have been
Would have been dead
If I didn't get the message
Goin' thru my head
I am what I am
Most motherfuckers
Don't give a damn
Aw baby think you can
Be my girl, I'll be your man
Someone full of fun
Do me 'till I'm well done
Little Bo peep
Cummin' from my stun gun
Beware... take care
Most motherfuckers
Have a cold ass stare
Aw baby please be there
Suck my kiss cut me my share

Terceiro Refrão:

E|--------3-3-3-3--3-3-3-------------------
B|--------3-3-3-3--3-3-3--2--2-------------
G|--------4-2-2-4--2-2-2--2--2-------------
D|-2--2---0-0-0-0--0-0-0--2--2-------------
A|-2--2-------------------0--0-------------
E|-0--0------------------------------------

E|--------3-3-3-3--3-3-3-------------------
B|--------3-3-3-3--3-3-3--2--2---3----0----
G|--------4-2-2-4--2-2-2--2--2---4br--0----
D|-2--2---0-0-0-0--0-0-0--2--2-------------
A|-2--2-------------------0--0-------------
E|-0—0-------------------------------------

E|--------3-3-3-3--3-3-3-------------------
B|--------3-3-3-3--3-3-3--2--2-------------
G|--------4-2-2-4--2-2-2--2--2-------------
D|-2--2---0-0-0-0--0-0-0--2--2-------2-----
A|-2--2-------------------0--0-------2-----
E|-0--0------------------------------0-----

E|-----------------------------------------
B|--------3-3-3-3--3-3-3--2--2-------------
G|--------4-2-2-4--2-2-2--2--2-------------
D|-2--2---0-0-0-0--0-0-0--2--2-------------
A|-2--2-------------------0--0-------------
E|-0--0------------------------------------

Hit me you can't hurt me
Suck my kiss
Kiss me please pervert me
Stick with this
Is she talking dirty
Give to me sweet sacred bliss
That mouth was made to suck my kiss
Outros vídeos desta música
    178.186 exibições
      • ½ Tom
      • A
      • Bb
      • B
      • C
      • Db
      • D
      • Eb
      • E
      • F
      • F#
      • G
      • Ab
    • Adicionar à lista

    Afinação da cifra

    Afinador online

      0 comentários

      Ver todos os comentários

      Conseguiu tocar?

      54Tocaram1Ainda não

      Grave um vídeo tocando Suck My Kiss e nos envie!

      Toque também

      1. Imagem do artista AudioslaveLike a Stone Audioslave
      2. Imagem do artista Foo FightersEverlong Foo Fighters
      3. Imagem do artista Faith No MoreEasy Faith No More
      4. Imagem do artista IncubusDrive Incubus

      Entre para o Cifra Club PRO

      Tenha acesso a benefícios exclusivos no App e no Site

      • Chega de anúncios

      • Badges exclusivas

      • Mais recursos no app do Afinador

      • Atendimento Prioritário

      • Aumente seu limite de lista

      • Ajude a produzir mais conteúdo

      Capítulos
      • Início
      • Equipamento - Distorção
      • Tocando a música
      • Dicas iniciais
      • Tocando Introdução
      • Ensinando Introdução
      • Tocando Primeira Parte
      • Ensinando Primeira Parte
      • Ensinando Segundo Refrão
      • Acordes do Refrão
      • Tocando Refrão
      • Ensinando Refrão
      • Tocando Segunda Parte e Segundo Refrão
      • Tocando Solo
      • Ensinando Solo (Parte 1)
      • Ensinando Solo (Parte 2)
      • Ensinando Solo (Parte 3 e 4)
      • Tocando Terceira Parte e Terceiro Refrão
      • Ensinando Terceira Parte
      • Ensinando Terceiro Refrão
      • Encerramento

      Cifra Club Pro

      Aproveite o Cifra Club com benefícios exclusivos e sem anúncios
      Cifra Club Pro
      Aproveite o Cifra Club com benefícios exclusivos e sem anúncios
      Ops (: Contenido disponible sólo en portugués.
      OK