Enviar cifraEntrar

Sem Você

Rosa de Saron

Cifra: Simplificada-2
exibições 121.887
Tom: G Afinação: Eb Ab Db Gb Bb Eb
Intro:
       P-1

E|-------------------------------|
B|-----3-------------------------|
G|-------------------------------|
D|-2p4---2-0---------------------|
A|-------------------------------|
E|-------------------------------|


                     P-2

   C9   Gb     Am7   G  -   C9    Gb    Am7   D D4 Am7 Gb G Cm G4


E|---3---3--3---------3-------3---3--3--------3-1-------3-------------|
B|---3---3--3--1--1---3-------3---3--3--1--1--4-4--1-1--3-3--4-3------|
G|---0---0--0--0--0---0-------0---0--0--0--0--3-3--0-0--0-0--5-5------|
D|-------------2--2---------------------2--2--0-0--2-2----0--5-5------|
A|-3-----2--2--0--0---------3-----2--2--0--0-------0-0--2----3-3------|
E|--------------------3-----------------------------------3-----------|



G           F#5+
 Minha vida, minha história
C9           Em D
Só fez sentido  quando Te conheci
G           F#5+     C9
Seus olhos, Sua face
           Em           D   41-42
Me levam além do que pensei

Em7     D          Em7     D9/E       C9 Gb
Se ás vezes me escondo em Você me acho
         Em      F#5+ 41-42
Nem dá pra disfarçar

Em7  D        Em7   D9/E         C9 Gb
Preciso dizer Você faz muita falta
        Em       Am7
Não há como explicar

Refrão:
G           F#5+                Em
Foi sem Você que eu pude entender
 Bm          C9     Am7
Que não é fácil viver sem Te ter
G          F#5+           Em
Meu coração me diz que não
  Bm        C9     Em       Am7 Gb
Eu não consigo viver sem Você
Cm
Sem Você

(repete a partir da P-2)
  • 1
  • 2
  • 3
  • 4
  • 5
  • 6
  • 7
  • 8
  • 9
  • 10
  • 11
  • 12
    Acordes para:
      Composição: Eduardo FaroColaboração e revisão:
      • Justen
      • bboymayk

      0 comentários

        mostrar mais comentários

        Conseguiu tocar?

        15tocaram0ainda não

        Grave um vídeo tocando Sem Você e mande pra gente!

        00:00 / 00:00
        outros vídeos desta música
        repetirqualidadeautomática
        • automática
        Outro vídeos desta música
          00:00 / 00:00
          automática
          • automática
          1 versão de Tab de bateriaexibiçõescontribuições
          2 versões de Guitar Proformatodownloadscontribuição
          1 versão de Partiturasformatodownloadscontribuição
          fecharplay/pause subir/descer velocidade
            acordes
            fechar
            OK
            Feedback