Cifra Club

Why Don´t You and I

Santana

Cifra: Principal (violão e guitarra)
tom: Bb
Afinação normal (E)

Chord Formations:

Bb:   x13331    Cm:  x35543
F:    133211    Eb:  x65343
Ab:   466544

Intro:(Bb, F, Ab, Eb, Gm, Eb, Cm, Eb, Bb, F, Ab, Eb)

Solo Intro
e|-----------------------------------------------------------------------------|
B|-----------------------------------------------------------------------------|
G|---5h7--5---3h5--3---3-2----2-5-3-2-3-2-0-----------3-----10-12--12-12-14-14-|
D|----------------------------------------------3-5----------------------------|
A|-----------------------------------------------------------------------------|
E|-----------------------------------------------------------------------------|

e|-------------------------------------------13--------------------------------|
B|--------13---13---15-15h16p15-----15-13-15----16-15-13----13-15-13-15brb~~--|
G|-15-15----15-------------------------------------------15--------------------|
D|-----------------------------------------------------------------------------|
A|-----------------------------------------------------------------------------|
E|-----------------------------------------------------------------------------|

Verse:
Bb        F  
Since the moment I spotted you
Ab                             Eb
Like walking round with little wings on my shoes
Bb           F                       Ab
My stomach’s filled with the butterflies
Eb
Mmm and it’s alright
Bb        F
Bouncing around from cloud to cloud
Ab                         Eb
I got the feeling like I’m never gonna come down
Bb                 F                            Ab
If I said I didn’t like it then you’d know I’d lied
Eb
Mm

Pre-Chorus:
Cm
Every time I try to talk to you
Eb
I get tongue tied
               Cm
Turns out that every thing I say to you
          Eb
Comes out wrong and never comes out right so I say

Chorus em power-chords c/ dist.:
Bb5               F5
Why don’t you and I get together
Eb5
Take on the world be together forever
Bb5        F5              Eb5
     Heads we will and tails we'll try again
   Bb5                    F5
So I say why don’t you and I hold each other
Eb5                               
Fly to the moon and straight on to heaven
Bb5                F5                      Eb5
'Cause without you they’re never gonna let me in

Intro 2:(Bb, F, Ab, Eb, Gm, Eb, Cm, Eb, Bb, F, Ab, Eb)

Verse:
Wings been screaming, gonna break
I think I’ve handled more than any man can take
I’m like a lovesick puppy chasing you around
Oo and it’s alright
Bouncing around from cloud to cloud
I got the feeling like I’m never gonna come down
If I said I didn’t like it then you’d know I’d lied
Mm

Pre-chorus

Chorus

Bridge:
Cm                        Eb
Slowly I begin to realize this is never gonna end
              Cm                                Eb
But about the same time, you walk by and I say “Oh here we go again” oh

Solo (Notas do Refrão) -> Bb5 F5 Eb5 

Obs: Lembrando que quando tiver o "5" na nota,
toca-se o riff.

Solo:

e||--15-----15-----15-----15-17-18-17-15-15---|
B||--18b20~-18b20~-18b20~---------------------|
G||-------------------------------------------|
D||-------------------------------------------|
A||-------------------------------------------|
E||-------------------------------------------|

e||--------15-15----15----15--18b20b18--15-15---|
B||--------------18----18-----------------------|
G||--17h19--------------------------------------|
D||---------------------------------------------|
A||---------------------------------------------|
E||---------------------------------------------|

e||--20p18h20p18h20p18h20p18h20p18-20b22~~~~--18-18-18-20-15-15--18---|
B||--------------------------------------------------------------------|
G||--------------------------------------------------------------------|
D||--------------------------------------------------------------------|
A||--------------------------------------------------------------------|
E||--------------------------------------------------------------------|

e||-------------------18~--17-18-17-15----15--18p15----15-15~-18p15---------------|
B||--15-15----18--15-------------------18-----------18--------------18------------|
G||--------15----------------------------------------------------------17~-1715--|
D||-------------------------------------------------------------------------------|
A||-------------------------------------------------------------------------------|
E||-------------------------------------------------------------------------------|

e||-----------------------------------------------------------|
B||----------16b18~~-----15-15-15-15-15-15--------------------|
G||--17b19~~---------15~-15-15-15-15-15-15--------------------|
D||----------------------15-15-15-15-15-15--15----------------|
A||--------------------------------------------17-15-15/13~---|
E||-----------------------------------------------------------|

Pre-chorus

Chorus
00:00 / 00:00
Outros vídeos desta música
Repetir
Outros vídeos desta música
Composição de Chad Kroeger
Colaboração e revisão:
61.749 exibições
    • ½ Tom
    • A
    • Bb
    • B
    • C
    • Db
    • D
    • Eb
    • E
    • F
    • F#
    • G
    • Ab
  • Adicionar à lista

    0 comentários

    Ver todos os comentários

    Conseguiu tocar?

    1 Tocaram 0 Ainda não

    Grave um vídeo tocando Why Don´t You and I e nos envie!

    00:00 / 00:00

    Cifra Club Pro

    Aproveite o Cifra Club com benefícios exclusivos e sem anúncios
    Cifra Club Pro
    Aproveite o Cifra Club com benefícios exclusivos e sem anúncios
    OK