Cifra Club

A Dança Das Borboletas

Sepultura

Cifra: Principal
exibições 18.557
Tom: G
A|-----------2--------2--|
E|-----o-o-o---0-0-0-----| (5x)

(riff 1)
E|-------------------------
B|-------------------------
G|-9--11-12--14--15--------
D|-------------------------
A|-7--9--10--12--13--------
E|-------------------------

(verso)

(riff 2)
E|-------------------------
B|-------------------------
G|-9--11-12--14--3---------
D|-------------------------
A|-7--9--10--12--1---------
E|-------------------------
As borboletas estão voando, a dança louca das borboletas

(refrão)
  (A4 Bb5 B5 E5 B5 Bb5)

D|-7-8-9-(2)-9-8-
A|-7-8-9-(2)-9-8-
E|-5-6-7--0--7-6-

Quem vai girar não quer dançar
só quer voar, avoar
Quem vai voar não quer dançar
só quer voar, avoar

(riff 1)

(verso)
E as borboletas estão girando
Estão virando a sua cabeça

(refrão)
(A4 Bb5 B5 E5 B5 Bb5)
Quem vai girar não quer dançar
só quer girar, não caia!
Quem vai girar não quer cair
só quer girar, não caia!

(riff 1)

( D5 A5 E5 G5 )
And the butterflies ...

(riff 3)
A|----------------------------
E|-3---3-5-6---8-6-5---1-3-

As borboletas estão voando
A dança louca das borboletas
Refrão Quem vai girar não quer dançar
só quer voar, avoar
Quem vai voar não quer dançar
só quer voar, avoar

as borboletas estão girando
Estão virando a sua cabeça
Refrão Quem vai girar não quer dançar
só quer girar, não caia!
Quem vai girar não quer cair
só quer girar, não caia!

ponte And the butterflies are invading
the apartments, theatres and bars
Sewers and rivers, lakes and seas
turn around, turn around, turn around
Destroying windows and glass doors
Escalators and in the chimneys
They sit and lie in the smoke
In a rainbow, knows what it is

Se sabe o que é... Se sabe o que é...
Se sabe o que é... Se sabe o que é...

E as borboletas estão invadindo
os apartamentos, cinemas e bares
Esgotos e rios e lagos e mares
Em um rodopio de arrepiar
Derrubam janelas e portas de vidro
Escadas rolantes e nas chaminés
Se sentam e pousam em meio à fumaça
De um arco-íris, se sabe o que é

Se sabe o que é... Se sabe o que é...
Se sabe o que é... Se sabe o que é...

Se sabe o que é... Se sabe o que é...
Se sabe o que é... Se sabe o que é...

Se sabe o que é... Se sabe o que é...
Se sabe o que é... Se sabe o que é...

(riff 4)
D|-5-5-5-5-5-7-8-8-8-8-10-8-7-7-7-7-3-5-
A|-5-5-5-5-5-7-8-8-8-8-10-8-7-7-7-7-3-5-
E|-3-3-3-3-3-5-6-6-6-6--8-6-5-5-5-5-1-3-
Acordes para:
    Composição: Ze ramalhoColaboração e revisão:
    • Andre Bahiense
    • Raquel Camargo
    • thiago silva

    0 comentários

      mostrar mais comentários

      Conseguiu tocar?

      3tocaram0ainda não

      Grave um vídeo tocando A Dança Das Borboletas e mande pra gente!

      00:00 / 00:00
      outros vídeos desta música
      repetirqualidadeautomática
      Outro vídeos desta música
        00:00 / 00:00
        automática
        OK