Cifra Club

Rivers of Babylon

Sublime

Tab de baixo: Principal
exibições 1.088
I know there is no bass in rivers of babylon but this is for those bassists like me who wanna play along.
         Intro
G|---------------------|
D|---------------------|
A|----2-2-3------------|
E|-3-3------3-3-3-3-3-3|x2

G|----------------------|
D|----------------------|
A|-2-2-3-3-2-0-0-0-0-0-0|
E|----------------------|

G|------------------------|
D|-0-0-0-2-0--------------|
A|----------2-0-----------|
E|-------------3-3-3-3-3-3|
     Verse
G|--------------------|
D|--------------------|
A|--------------------|
E|-3-3-3-3-3-3-3-3-3-3|x2

G|--------------------|
D|--------------------|
A|-0-0-0-0-0-0-0-0-0-0|
E|--------------------|

G|--------------------|
D|--------------------|
A|--------------------|
E|-3-3-3-3-3-3-3-3-3-3|
     Solo                            
G|---------------------|           
D|---------------------|
A|----2-2-3------------|
E|-3-3------3-3-3-3-3-3|x2

G|----------------------|
D|----------------------|
A|-2-2-3-3-2-0-0-0-0-0-0|
E|----------------------|

G|------------------------|
D|-0-0-0-2-0--------------|
A|----------2-0-----------|
E|-------------3-3-3-3-3-3|

     Verse 2
G|--------------------|
D|--------------------|
A|--------------------|
E|-3-3-3-3-3-3-3-3-3-3|x2

G|--------------------|
D|--------------------|
A|-0-0-0-0-0-0-0-0-0-0|
E|--------------------|

G|--------------------|
D|--------------------|
A|--------------------|
E|-3-3-3-3-3-3-3-3-3-3|

Thats it Enjoy!

0 comentários

    mostrar mais comentários

    Conseguiu tocar?

    1tocaram0ainda não

    Grave um vídeo tocando Rivers of Babylon e mande pra gente!

    00:00 / 00:00
    outros vídeos desta música
    repetirqualidadeautomática
    Outro vídeos desta música
      00:00 / 00:00
      automática
      OK