Cifra Club

Bleeding Heart

Angra

Tab de baixo: Principal
exibições 8.630
Intro
G--------------
D----------9---
A---------9----
E-7r-----7-----

Pre-verse
G------------------------------
D----------------7-------------
A-------7-------7--------------
E-77-755-5-77-75--5-77-75557---

Verse
G--------------------------------------------------------
D--------------------------------------------------------
A--------------------------------------------------------
E-777-555-777-555-777-555-777-555-777-555-777-555-3335---

G----------------------------------------------------------
D----------------------------------------------------------
A----------------------------------------------------------
E-7-55-77-55-55-7-55-77-5555-7-55-77-55-55-7-55-77-77777---

Chorus
G-----------------------------------
D-22-222-4-44-444-55-555-7-77-777---
A-----------------------------------
E-----------------------------------

G-------------------------------------------
D-------------------------------------------
A-------------------------------------------
E-00000000222222223333333355555555-757577---

Pre-verse
Verse
Chorus

Bridge
G----------------------------------
D----------------------------------
A-------7-77/8-----------7-77/8----
E-7-55-5------7-7--7-55-5------7---

G------------------------------------
D------------------------------------
A---------77----------------7-7------
E-77--55------77--7-7--5-5-------7---

G--------------------------------
D--------------------------------
A---------------7-7-77-----------
E-7-7-77-5-5-55--------7-7-77----

G----------------------------------
D----------------------------7h9---
A---------------7-7-77----7h9------
E-7-7-77-5-5-55--------7-7---------

G----9h11/1414-1414-14-13-13-1313/161413-11-1111-11109-99-98---------------
D-9-9-------------------------------------------------------9-99-----------
A----------------------------------------------------------------2---------
E------------------------------------------------------------------2-3-5---

Pre-verse
Verse
Chorus 2x

Outro
G----------------------------------
D----------------------------------
A-------7-77/8-----------7-77/8---- 2x
E-7-55-5------7-7--7-55-5------7---

Thats it.

_______________________________________________________
Contribuição: Taino Vieira(tainoguitarrista@yahoo.com.br)

0 comentários

    mostrar mais comentários

    Conseguiu tocar?

    0tocaram0ainda não

    Grave um vídeo tocando Bleeding Heart e mande pra gente!

    00:00 / 00:00
    outros vídeos desta música
    repetirqualidadeautomática
    Outro vídeos desta música
      00:00 / 00:00
      automática
      OK