Cifra Club

No Pain For The Dead

Angra

Cifra: Principal (violão e guitarra)
Tom: D
Introduçao: (Os violões são em terça, talvez depois eu faça a tablatura
            do segundo violão). (Escuta bastante a música pra pegar o 
            timing dos arpeggios).


E|-------7-5-----5-3-----3-2-----3-8-7-5-3-2-0-------------| 
B|-----3-------3-------3-------3-----------0---3-1-1-0-----| 
G|---2-------5-------4-------2---------------------2---2---| 
D|---------------------------------------------------------| 
A|---------------------------------------------------------| 
E|-0-------------------------------------------------------|


E|-------7-5-----5-3-----3-2-----3-8-7-5-3-2-0-----------0-| 
B|-----3-------3-------3-------3-----------0---3-1-1-0-2---| 
G|---2-------5-------4-------2---------------------2-------| 
D|---------------------------------------------------------| 
A|---------------------------------------------------------| 
E|-0-------------------------------------------------------|


Em
B|---8-----8-----8-----8-------10| 
G|-----9-----9-----9-----9-------| 
D|-------9-----9-----9-----9-----| 
A|---7-------------------------9-| 
Standing by his coffin 

D
B|---7-----7-----7-----7-----5-7-10| 
G|-----7-----7-----7-----7---------| 
D|-------7-----7-----7-----7-------| 
A|---5-----------------------3-5-9-| 
Thoughts have gone astray 

Em
B|---8-----8-----8-----10-12| 
G|-----9-----9-----9--------| 
D|-------9-----9-----9------| 
A|---7------------------9-10|
Life is just a burden 
D
B|---7-----7-----7-----7-----8--| 
G|-----7-----7-----7-----7------| 
D|-------7-----7-----7-----7----| 
A|---5-----------------------5--| 
Carry yours away 

C
B|-5------5-----5-----5-----5-| 
G|---5------5-----5-----5-----| 
D|-----5------5-----5-----5---| 
A|-3--------------------------| 
Wipe the tears that fall 

C
B|---5-----5-------5-----4-5-7-| 
G|-----5-----5-----------------| 
D|-------5-----5---------------| 
A|---3-------------------6-7-9-|
Moments recalled in the 


Em
B|---8-----8-----8-----8-------10| 
G|-----9-----9-----9-----9-------| 
D|-------9-----9-----9-----9-----| 
A|---7-------------------------9-| 
Child's  

D
B|---7-----7-----7-----7-----5-7-10| 
G|-----7-----7-----7-----7---------| 
D|-------7-----7-----7-----7-------| 
A|---5-----------------------3-5-9-|
eyes


Em
B|---8-----8-----8-----10-12| 
G|-----9-----9-----9--------| 
D|-------9-----9-----9------| 
A|---7------------------9-10|
Watch the world go by 

C
B|-5------5-----5-----5-----5-| 
G|---5------5-----5-----5-----| 
D|-----5------5-----5-----5---| 
A|-3--------------------------| 
Flying through the stars 


C
B|---5-----5-------5-----4-5-7-| 
G|-----5-----5-----------------| 
D|-------5-----5---------------| 
A|---3-------------------6-7-9-|
Won't hide the scars 

G       
Always 
Bm
Mourning cries 
Em              C 
Wasted in this world 
G         Bm 
I'd never realized 
 Em                     C       
Smiles in the falling rain 

D               Em  E|-0-0-0-3-2-| Em G
  Wash the tears away 
 
D                       Em  E|-0-0-0-3-2-| G 
  Face the angel of death 

Bm                        Am A|-0-0-0-3-2-| Am C        
  Soon your time will be over 

G                     Em  
  Your salvation is ahead 

E|-0-0-0-3-2-| Em G    D
  That's     why I    said 

             C             Em   
There is no pain for the dead  

B|---8-----8-----8-----8-------10| 
G|-----9-----9-----9-----9-------| 
D|-------9-----9-----9-----9-----| 
A|---7-------------------------9-| 

D
e|--------------------7-5--------|
B|---7-----7-----7--------8-7----| 
G|-----7-----7-----7-------------| 
D|-------7-----7-----7-----------| 
A|---5---------------------------| 

(Usa o Dedilhado do começo que é o certo, eu prefiro essa parte batido)

Em       D
 Dying now 
      Em          D 
Hourglass counts down 

 C
B|-5------5-----5-----5-----5-| 
G|---5------5-----5-----5-----| 
D|-----5------5-----5-----5---| 
A|-3--------------------------|
Laeaving this world 

C
B|-5------5-----5-4---------| 
G|---5------5-------5-2-----| 
D|-----5------5-------------| 
A|-3------------------------|
Your destination is 


G       Bm
Hiding mourning time 
Em               C  
Face up to the world 
G            Bm
Another day passes by 
Em                     C                       
Living our minutes in vain 
D               Em     [02:13] 
Wipe the tears away 
______________________________________________________

Ponte (violinos): (Em  Bm  F#m | C#m  F#
                   Bm e assim vai...     )
______________________________________________________
(Sabine - Edenbrigde) [02:44]

D      A4/C#    Bm     A       Bm
Triumph for the martyrs of the war
F    C4/E      Dm     C      Em       Bm
Fallen for the causes of the others...
Bm             C#m
Worth the sacrifice?
C#m7/-5    B4    B
Heroes are dying now
E7            A
Hearing their mothers cry
B7          Em
Heaven is a metaphor
Em        Bm       G  A
Free your mind and spirit) 

D             A4/C#
Mother Earth, do you part take my
G        Em
soul, oh no!
D      A4/C#      Bm 
Water, wind and fire... 
C                      Em
Will take our spirits away 

Em
(Victims of Sacrifice)
D                       Em  E|-0-0-0-3-2-| G
Face the Angel of Death 

(Struggling to survive)
Bm                        Am A|-0-0-0-3-2-| Am C
Soon your time will be over 

(Revolution remains) 
G                     Em
Your salvation is ahead 
E|-0-0-0-3-2-| Em G    D
It's not so sad 

             C             Em
There is no pain for the dead

Em
(Victims of Sacrifice)
D                       Em  E|-0-0-0-3-2-| G
There'll be no rest till tou're dead

(Struggling to survive) 
Bm            Am A|-0-0-0-3-2-| Am C
Liberation of soul 
G           D
It's not so sad
            C            Em D  Em  D  C
There is no pain for the dead, oh!
  B7               Em
...No pain for the dead
exibições 44.431
Acordes para:
    Composição: Bittencourt / Kiko Loureiro Colaboração e revisão:
    • Tiago Silva
    • Jhony Batista

    0 comentários

    mostrar mais comentários

    Conseguiu tocar?

    1 tocaram 0 ainda não

    Grave um vídeo tocando No Pain For The Dead e mande pra gente!

    00:00 / 00:00
    outros vídeos desta música
    repetir qualidade Automático
    Outros vídeos desta música
    00:00 / 00:00
    Automático
    OK