Cifra Club

Fireworks

Angra

Tab de baixo: Principal
exibições 2.630
                        
                                                                         
G||----------------------------------|----------------------------------|
D||----------------------------------|----------------------------------|
A||--5------5-----3--5------5-----3--|--5------5-----3--5------5-----3--|
E||------------5---------------5-----|------------5---------------5-----|
B||----------------------------------|----------------------------------|


                                                                      
----------------------------------|----------------------------------|
----------------------------------|----------------------------------|
--5------5-----3--5------5-----3--|--5------5-----3--5------5--3-----|
------------5---------------5-----|------------5------------------5--|
----------------------------------|----------------------------------|


                                                              
------------------------------|------------------------------|
------------------------------|------------------------------|
----------5-------------------|----------5------5------------|
------4-----------------------|------4-----------------------|
--3--------------3------------|--3---------------------------|


                                                                       
------------------------------------|---------------------------------|
----------4--5--7----------5--4-----|----------4--5--7----------------|
--5---5--------------------------7--|--5---5------------1------3------|
-------------------5---5------------|---------------------------------|
------------------------------------|---------------------------------|


                                                      
----------------------------------|------------------|
----------------------------------|------------------|
--5------5-----3--5------5-----3--|--5------5-----3--|
------------5---------------5-----|------------5-----|
----------------------------------|------------------|


                                                                      
----------------------------------|----------------------------------|
----------------------------------|----------------------------------|
--5------5-----3--5------5-----3--|--5------5-----3--5------5--3-----|
------------5---------------5-----|------------5------------------5--|
----------------------------------|----------------------------------|


                                                                 
------------------------------|---------------------------------|
------------------------------|---------------------------------|
----------5------5------------|----------5------5------5-----2--|
------4-----------------------|------4--------------------5-----|
--3---------------------------|--3------------------------------|


                                                                                
-----------------------||-----------------------------------|------------------|
-----------------------||*----------------------------------|------------------|
-----------------------||---5------5-----3--5------5-----3--|--5------5-----3--|
--3--------------------||*------------5---------------5-----|------------5-----|
-----------------------||-----------------------------------|------------------|


                                                                      
----------------------------------|----------------------------------|
----------------------------------|----------------------------------|
--5------5-----3--5------5-----3--|--5------5-----3--5------5--3-----|
------------5---------------5-----|------------5------------------5--|
----------------------------------|----------------------------------|


                                                                
------------------------------|--------------------------------|
------------------------------|--------------------------------|
----------5-------------------|----------5------5-----------2--|
------4-----------------------|------4-------------------5-----|
--3--------------3------------|--3-----------------------------|


                                                                     
-------------------------------|------------------------------------|
-------------------------------|----------4--5--7----------5--4-----|
--3------------3------3--3--3--|--5---5--------------------------7--|
-------------------------------|-------------------5---5------------|
-------------------------------|------------------------------------|


                                                                       
---------------------------------|------------------------------------|
----------4--5--7----------------|----------4--5--7----------5--4-----|
--5---5------------1------3------|--5---5--------------------------7--|
---------------------------------|-------------------5---5------------|
---------------------------------|------------------------------------|


                                                                     
---------------------------------|----------------------------------|
----------4--5--7----------------|----------------------------------|
--5---5------------1------3------|--5------5-----3--5------5-----3--|
---------------------------------|------------5---------------5-----|
---------------------------------|----------------------------------|


                                                      
------------------|----------------------------------|
------------------|----------------------------------|
--5------5-----3--|--5------5-----3--5------5-----3--|
------------5-----|------------5---------------5-----|
------------------|----------------------------------|


                                                                  
----------------------------------|------------------------------|
----------------------------------|------------------------------|
--5------5-----3--5------5--3-----|----------5------5------------|
------------5------------------5--|------4-----------------------|
----------------------------------|--3---------------------------|


                                                          
---------------------------------|-----------------------|
---------------------------------|-----------------------|
----------5------5------5-----2--|-----------------------|
------4--------------------5-----|--3--------------------|
--3------------------------------|-----------------------|


                                                                       
------------------------------------|---------------------------------|
----------4--5--7----------5--4-----|----------4--5--7----------------|
--5---5--------------------------7--|--5---5------------1------3------|
-------------------5---5------------|---------------------------------|
------------------------------------|---------------------------------|


                                                                       
------------------------------------|---------------------------------|
----------4--5--7----------5--4-----|----------4--5--7----------------|
--5---5--------------------------7--|--5---5------------1------3------|
-------------------5---5------------|---------------------------------|
------------------------------------|---------------------------------|


                                                                           
--------------------------------------------------------------------------|
--5-5-5-5-5-5-5-5-5-5-5-5-5-5-5-5-5-5-8-8-8-8-8-8-8-8-8-8-8-8-8-8-8-8-8-8-|
--------------------------------------------------------------------------|
--------------------------------------------------------------------------|
--------------------------------------------------------------------------|


                                                                                
--------------------------------------------------------------------------------
--10-10-10-10-10-10-10-10-10-10-10-10-10-10-10-10-10-10-11-11-11-11-11-11-11-11-
--------------------------------------------------------------------------------
--------------------------------------------------------------------------------
--------------------------------------------------------------------------------


                                                                           
--------------------------------------------------------------------------|
--5-5-5-5-5-5-5-5-5-5-5-5-5-5-5-5-5-5-8-8-8-8-8-8-8-8-8-8-8-8-8-8-8-8-8-8-|
--------------------------------------------------------------------------|
--------------------------------------------------------------------------|
--------------------------------------------------------------------------|


                                                                                
--------------------------------------------------------------------------------
--10-10-10-10-10-10-10-10-10-10-10-10-10-10-10-10-10-10-11-11-11-11-11-11-11-11-
--------------------------------------------------------------------------------
--------------------------------------------------------------------------------
--------------------------------------------------------------------------------


                                                                              
--------------------------------------|--------------------------------------|
--------------------------------------|--------------------------------------|
--5--5--5--5--5--5--5--5--5--5--5--5--|--------------------------------------|
--------------------------------------|--3--3--3--3--3--3--3--3--3--3--3--3--|
--------------------------------------|--------------------------------------|


                                                                              
--------------------------------------|--------------------------------------|
--------------------------------------|--------------------------------------|
--------------------------------------|--5--5--5--5--5--5--5--5--5--5--5--5--|
--5--5--5--5--5--5--5--5--5--5--5--5--|--------------------------------------|
--------------------------------------|--------------------------------------|


                                                                              
--------------------------------------|--------------------------------------|
--------------------------------------|--------------------------------------|
--------------------------------------|--------------------------------------|
--3--3--3--3--3--3--3--3--3--3--3--3--|--5--5--5--5--5--5--5--5--5--5--5--5--|
--------------------------------------|--------------------------------------|


                                                                              
--------------------------------------|--------------------------------------|
--------------------------------------|--------------------------------------|
--3--3--3--3--3--3--5--3--3--2--0--0--|--------------------------------------|
--------------------------------------|--3--3--3--3--3--3--3--3--3--3--3--0--|
--------------------------------------|--------------------------------------|


                                                                              
--------------------------------------|--------------------------------------|
--------------------------------------|--------------------------------------|
--------------------------------------|--5--5--5--5--5--5--5--5--5--5--5-----|
--1--1--1--1--1--1--1--1--1--1--1--1--|-----------------------------------5--|
--------------------------------------|--------------------------------------|


                                                                              
--------------------------------------|--------------------------------------|
--------------------------------------|--------------------------------------|
--------------------------------------|--------------------------------------|
--3--3--3--3--3--3--3--3--3--3--3--3--|--5--5--5--3--3--3--5--5--5--5--5--5--|
--------------------------------------|--------------------------------------|


                                                                              
--------------------------------------|--------------------------------------|
--------------------------------------|--------------------------------------|
--5--5--5--5--5--5--5--5--5--5--5-----|-----------5--------5--5--5-----5-----|
-----------------------------------5--|--3--3--3-----3--3-----------3-----3--|
--------------------------------------|--------------------------------------|


                                                                              
--------------------------------------|--------------------------------------|
--------------------------------------|--------------------------------------|
--------------------------------------|--3--3--3--3--3--3--5--3--3--2--------|
--5--5--5--3--3--3--5--5--5--5--5--5--|--------------------------------5--5--|
--------------------------------------|--------------------------------------|


                                                                              
--------------------------------------|--------------------------------------|
--------------------------------------|--------------------------------------|
--------------------------------------|--------------------------------------|
--3--3--3--3--3--3--3--3--3--3--3--3--|--1--1--1--1--1--1--1--1--1--1--1--1--|
--------------------------------------|--------------------------------------|


                                                         
---------------------------|----------------------------|
---------------------------|--5----------------------5--|
--6--6--6--6--6------------|----------------------------|
---------------------------|----------------------------|
---------------------------|----------------------------|


                                                          
-----------------------------|---------------------------|
--5------------3h------------|---------------------------|
--------------------------3--|--5------------------------|
-----------------------------|---------------------------|
-----------------------------|---------------------------|


                                                          
----------------------------|----------------------------|
----------------------------|--5----------------------5--|
--5----------------------3--|----------------------------|
----------------------------|----------------------------|
----------------------------|----------------------------|


                                                          
-----------------------------|---------------------------|
--5------------3h------------|---------------------------|
--------------------------3--|--5------------------------|
-----------------------------|---------------------------|
-----------------------------|---------------------------|


                                                           
---------------------------|--3-------------3-------------|
---------------------------|---------3--------------------|
--5------------------------|-----------------------3------|
---------------------------|------------------------------|
---------------------------|------------------------------|


                                                                 
--------------------------------|----------------3--------------|
--------------------------------|---------3---------------------|
--5-------------5---------5--3--|--1----------------------1--3--|
---------5-------------5--------|-------------------------------|
--------------------------------|-------------------------------|


                                                                 
-------------------------------|--------------------------------|
------------------------5------|-----------------------3--------|
--5----------5--3----3---------|--------------------------3--4--|
-------------------------------|--3------3------1---------------|
-------------------------------|--------------------------------|


                                                              
------------------------------|------------------------------|
-----------------------5------|------------------------------|
--5----------5--3-------------|--5------------5------5----0--|
------------------------------|------------------------------|
------------------------------|------------------------------|


                                                                
------------------------------|--------------------------------|
---------3--------------------|--------------------------------|
--1-------------1------3------|--5-----------------------5--3--|
------------------------------|---------5-------------5--------|
------------------------------|----------------3---------------|


                                                                
------------------------------|--------------------------------|
---------3--------------------|--------------------------------|
--1-------------1------3------|--5-------------5---------5--3--|
------------------------------|---------5-------------5--------|
------------------------------|--------------------------------|


                                                                            
--------------------------------|------------------------------------------|
---------3-------------3--------|--1--1-1-1-1-1-----1--3--3-3-3-3-3--1--0--|
--1-------------1---------1--3--|----------------1-------------------------|
--------------------------------|------------------------------------------|
--------------------------------|------------------------------------------|


                                                                         
----------------------------------|-------------------------------------|
---------3------------------------|-------------------------------------|
--1---------1--3---------3--1-----|--5--5-5-5--5--3--0---------3--------|
------------------3------------3--|---------------------1---------1--3--|
----------------------------------|-------------------------------------|


                                                                             
----------------------------------------|-----------------------------------|
------------3---------------------------|-------0-----------1------1--0-----|
--1--1-1-1-----1--3------------5--1-----|-----3--------------------------3--|
---------------------3--3-3-3--------3--|--1------1--1----------------------|
----------------------------------------|-----------------------------------|


                                         
----------------------------------------|
------------3---------------------------|
--1--1-1-1-----1--3------------5--1-----|
---------------------3--3-3-3--------3--|
----------------------------------------|


                                         
----------------------------------------|
--------------------------3----3--------|
--5--5-5-5--5--3--0-----3---------------|
---------------------1------1-----1--3--|
----------------------------------------|


                                                              
----------------------------------------|--------------------|
------------3---------------------------|-----------3--3--3--|
--1--1-1-1-----1--3-------1----5--1-----|--------------------|
---------------------3--3---3--------3--|--1--1--1-----------|
----------------------------------------|--------------------|


                                       
--------------------------------------|
--1--1--1--1--1--1--1--1--1--1--1--3--|
--------------------------------------|
--------------------------------------|
--------------------------------------|


                                                                           
--------------------------------------------------------------------------|
--5-5-5-5-5-5-5-5-5-5-5-5-5-5-5-5-5-5-8-8-8-8-8-8-8-8-8-8-8-8-8-8-8-8-8-8-|
--------------------------------------------------------------------------|
--------------------------------------------------------------------------|
--------------------------------------------------------------------------|


                                                                                
--------------------------------------------------------------------------------
--10-10-10-10-10-10-10-10-10-10-10-10-10-10-10-10-10-10-11-11-11-11-11-11-11-11-
--------------------------------------------------------------------------------
--------------------------------------------------------------------------------
--------------------------------------------------------------------------------


                                                                           
--------------------------------------------------------------------------|
--5-5-5-5-5-5-5-5-5-5-5-5-5-5-5-5-5-5-8-8-8-8-8-8-8-8-8-8-8-8-8-8-8-8-8-8-|
--------------------------------------------------------------------------|
--------------------------------------------------------------------------|
--------------------------------------------------------------------------|


                                                                                
--------------------------------------------------------------------------------
--10-10-10-10-10-10-10-10-10-10-10-10-10-10-10-10-10-10-11-11-11-11-11-11-11-11-
--------------------------------------------------------------------------------
--------------------------------------------------------------------------------
--------------------------------------------------------------------------------


                                                                              
--------------------------------------|--------------------------------------|
--------------------------------------|--------------------------------------|
--5--5--5--5--5--5--5--5--5--5--5--5--|--------------------------------------|
--------------------------------------|--3--3--3--3--3--3--3--3--3--3--3--3--|
--------------------------------------|--------------------------------------|


                                                                              
--------------------------------------|--------------------------------------|
--------------------------------------|--------------------------------------|
--------------------------------------|--5--5--5--5--5--5--5--5--5--5--5--5--|
--5--5--5--5--5--5--5--5--5--5--5--5--|--------------------------------------|
--------------------------------------|--------------------------------------|


                                                                              
--------------------------------------|--------------------------------------|
--------------------------------------|--------------------------------------|
--------------------------------------|--------------------------------------|
--3--3--3--3--3--3--3--3--3--3--3--3--|--5--5--5--5--5--5--5--5--5--5--5--5--|
--------------------------------------|--------------------------------------|


                                                                              
--------------------------------------|--------------------------------------|
--------------------------------------|--------------------------------------|
--3--3--3--3--3--3--5--3--3--2--0--0--|--------------------------------------|
--------------------------------------|--3--3--3--3--3--3--3--3--3--3--3--0--|
--------------------------------------|--------------------------------------|


                                                                              
--------------------------------------|--------------------------------------|
--------------------------------------|--------------------------------------|
--------------------------------------|--5--5--5--5--5--5--5--5--5--5--5-----|
--1--1--1--1--1--1--1--1--1--1--1--1--|-----------------------------------5--|
--------------------------------------|--------------------------------------|


                                                                              
--------------------------------------|--------------------------------------|
--------------------------------------|--------------------------------------|
--------------------------------------|--------------------------------------|
--3--3--3--3--3--3--3--3--3--3--3--3--|--5--5--5--3--3--3--5--5--5--5--5--5--|
--------------------------------------|--------------------------------------|


                                                                              
--------------------------------------|--------------------------------------|
--------------------------------------|--------------------------------------|
--5--5--5--5--5--5--5--5--5--5--5-----|-----------5--------5--5--5-----5-----|
-----------------------------------5--|--3--3--3-----3--3-----------3-----3--|
--------------------------------------|--------------------------------------|


                                                                              
--------------------------------------|--------------------------------------|
--------------------------------------|--------------------------------------|
--------------------------------------|--3--3--3--3--3--3--5--3--3--2--------|
--5--5--5--3--3--3--5--5--5--5--5--5--|--------------------------------5--5--|
--------------------------------------|--------------------------------------|


                                                                              
--------------------------------------|--------------------------------------|
--------------------------------------|--------------------------------------|
--------------------------------------|--------------------------------------|
--3--3--3--3--3--3--3--3--3--3--3--3--|--1--1--1--1--1--1--1--1--1--1--1--1--|
--------------------------------------|--------------------------------------|


                                                                              
--------------------------------------|--------------------------------------|
--------------------------------------|--------------------------------------|
--6--6--6--6--6--6--6--6--6--6--6--6--|--5--5--5--5--5--5--5--5--5--5--5--5--|
--------------------------------------|--------------------------------------|
--------------------------------------|--------------------------------------|


                                                                              
--------------------------------------|--------------------------------------|
--------------------------------------|--------------------------------------|
--5--5--5--5--5--5--5--5--5--5--5--5--|--5--5--5--5--5--5--5--5--5--5--0--0--|
--------------------------------------|--------------------------------------|
--------------------------------------|--------------------------------------|


                                                                           
--------------------------------------|-----------------------------------|
-----------3--3--3-----------5--5--5--|--------------------4----5----7----|
--1--1--1-----------3--3--3-----------|--5--5--5--5--5--5-----------------|
--------------------------------------|-----------------------------------|
--------------------------------------|-----------------------------------|


                                                                        
-----------------------------------|-----------------------------------|
--------------------5----4---------|--------------------4----5----7----|
--5--5--5--5--5--5------------7----|--5--5--5--5--5--5-----------------|
-----------------------------------|-----------------------------------|
-----------------------------------|-----------------------------------|


                                       
--------------------------------------|
-----------3--3--3-----------5--5--5--|
--1--1--1-----------3--3--3-----------|
--------------------------------------|
--------------------------------------|


                                                   
--------------------------------------------------|
--------------------------------------------------|
--5-5-5-5-5-5-5-5-5-5-3-3-5-5-5-5-5-5-5-5-5-5-3-3-|
--------------------------------------------------|
--------------------------------------------------|


                                                   
--------------------------------------------------|
--------------------------------------------------|
--5-5-5-5-5-5-5-5-5-5-0-0-1-1-1-1-1-1-3-3-3-3-3-3-|
--------------------------------------------------|
--------------------------------------------------|


                                                   
--------------------------------------------------|
--------------------------------------------------|
--5-5-5-5-5-5-5-5-5-5-3-3-5-5-5-5-5-5-5-5-5-5-3-3-|
--------------------------------------------------|
--------------------------------------------------|


                                                   
--------------------------------------------------|
--------------------------------------------------|
--5-5-5-5-5-5-5-5-5-5-0-0-1-1-1-1-1-1-3-3-3-3-3-3-|
--------------------------------------------------|
--------------------------------------------------|


                                                                      
----------------------------------|----------------------------------|
----------------------------------|----------------------------------|
--5-5-5-5-5-5-5-5-5-5-5-5-5-5-5-5-|--5-5-5-5-5-5-5-5-5-5-5-5-5-5-5-5-|
----------------------------------|----------------------------------|
----------------------------------|----------------------------------|


                                                                      
----------------------------------|--------------------------------5-|
----------------------------------|--3-3-3-3-3-3-3-3-5-5-5-5-5-5-5---|
--5-5-5-5-5-5-5-5-5-5-5-5-5-5-5-5-|----------------------------------|
----------------------------------|----------------------------------|
----------------------------------|----------------------------------|


                                                                      
--7-7-7-7-7-7-7-7-7-7-7-7-7-7-7-7-|--7-7-7-7-7-7-7-7-7-7-7-7-7-7-7-7-|
----------------------------------|----------------------------------|
----------------------------------|----------------------------------|
----------------------------------|----------------------------------|
----------------------------------|----------------------------------|


                                                                           
--7-7-7-7-7-7-7-7-7-7-7-7-7-7----|--------------------|-------------------|
---------------------------------|--------------------|-------------------|
------------------------------0--|--1--------3--------|-------------------|
---------------------------------|--------------------|-------------------|
---------------------------------|--------------------|--3----------------|

0 comentários

    mostrar mais comentários

    Conseguiu tocar?

    0tocaram0ainda não

    Grave um vídeo tocando Fireworks e mande pra gente!

    00:00 / 00:00
    outros vídeos desta música
    repetirqualidadeautomática
    Outro vídeos desta música
      00:00 / 00:00
      automática
      OK