Cifra Club

Lease Of Life

Angra

Cifra: Completa (violão e guitarra)
Selo Cifra Club: esta cifra foi revisada para atender aos critérios oficiais da nossa Equipe de Qualidade.
tom: Ab
Intro 4x:
(Where do you come from...)
E|--------3--------|--------3--------------1--------------3-------------3-------------|
B|------3-----3----|------3-----3--------3-----3--------3-----3-------3-----3---------|
G|----5-----5---5--|----5-----5---5----3-----3---3----5-----5---5---5-----5---5-------|
D|-----------------|------------------------------------------------------------------|
A|--3--------------|-----------------1--------------3-------------3-------------------|
E|-----------------|--4---------------------------------------------------------------|

Ponte:
   In this dance   around   the         isle      empty screams are all...
E|----------------------------------------3-3-3-3-------------------------------------|
B|--------9------9----------9------9------3-3-3-3-------------------------6-6-6-6-----|
G|-------10-----10---------10-----10------5-5-5-5------5---5-------5---5--8-8-8-8-----|
D|----10-----------10---10-----------10----------------6---6-------6---6--8-8-8-8-----|
A|--8--------8--------8--------8----------3-3-3-3----6---6---6---6---6----6-6-6-6-----|
E|-------------------------------------------------4-----------4----------------------|

Interlúdio Piano:
E|------------------------------------------------------------------------------------|
B|------3-4-3----3-----------------3-4--3-4-6--4-3-4--3-------------------------------|
G|----5--------5---5-5-5--5-5-5--5----------------------5-5---------------------------|
D|------------------------------------------------------------------------------------|
A|--3------------3----------3-3------3------3------3----3-3---------------------------|
E|------------------------------------------------------------------------------------|

Refrão:
(We've got to believe we'll join our lives over the vengeance...)
E|-0------------1---------------------------------------------------------------------|
B|-1------------1--------------------1----------------6--------------4----5-----------|
G|-0------------1--------------------3----------------8----7----5----5----4---5-------|
D|-2------------3--------------------3----------------8----8----6----4----6---8-------|
A|-3------------3--------------------1----------------6----5----6---------7---8-------|
E|--------------------------------------------------------------4----5--------6-------|
Outros vídeos desta música
    2.190 exibições
      • ½ Tom
      • A
      • Bb
      • B
      • C
      • Db
      • D
      • Eb
      • E
      • F
      • F#
      • G
      • Ab
    • Adicionar à lista

    Afinação da cifra

    Afinador online

      0 comentários

      Ver todos os comentários

      Conseguiu tocar?

      3Tocaram0Ainda não

      Grave um vídeo tocando Lease Of Life e nos envie!

      Toque também

      1. Imagem do artista ShamanFairy Tale Shaman
      2. Imagem do artista Edu FalaschiPegasus Fantasy - Saint Seya Edu Falaschi
      3. Imagem do artista Andre MatosFairy Tale Andre Matos
      4. Imagem do artista HangarTime To Forget Hangar

      Entre para o Cifra Club PRO

      Tenha acesso a benefícios exclusivos no App e no Site

      • Chega de anúncios

      • Badges exclusivas

      • Mais recursos no app do Afinador

      • Atendimento Prioritário

      • Aumente seu limite de lista

      • Ajude a produzir mais conteúdo

      Cifra Club Pro

      Aproveite o Cifra Club com benefícios exclusivos e sem anúncios
      Cifra Club Pro
      Aproveite o Cifra Club com benefícios exclusivos e sem anúncios
      OK