Cifra Club

Aprenda

Iron Man

Black Sabbath

Tab de baixo: Versão 12
VERSO(*)
|-------------------------------------------------------------------
|------------0-0--2-2-----5-4-5-4-5--0-0--2-2---------------- 7x
|-----2------------------------------------------------------------
|-------------------------------------------------------------------

|-------------------------------------------------------------------
|------------------------------------------------------------------- 2x
|----------5--------------------------------------------------------
|----7-7-----7--6-5-5-5----0--4--5-5--6------------------------

|-------------------------------------------------------------------
|-------------------------------------------------------------------
|--------5-----------------------------------------------------------
|---7-7----7--6-5-5-5--------------------------------------------

|-------------------------------------------------------------------
|-------------------------------------------------------------------
|----------------7---------5---------------------------------------
|------------------------------------------------------------------- 
                                                                          2x
|-----------------------------2-3-4--------------------------------
|------------0-1-2---2-3-4---------------------------------------- 
|----2--2----------------------------------------------------------
|-------------------------------------------------------------------
Composição de Bill Ward / Geezer Butler / Ozzy Osbourne / Tony Iommi
Colaboração e revisão:
  • Luan Gonçalves
269 exibições

0 comentários

Mostrar mais comentários
00:00 / 00:00
outros vídeos desta música
repetir qualidade Automático
Outros vídeos desta música
00:00 / 00:00
Automático

Cifra Club Pro

Aproveite o Cifra Club com benefícios exclusivos e sem anúncios
7 dias grátis
Cifra Club Pro
Aproveite o Cifra Club com benefícios exclusivos e sem anúncios
7 dias grátis
OK