Cifra Club

Aprenda

Iron Man

Black Sabbath

Tab de baixo: Studio-version-completa
Iron Man (Black Sabbath)
Afinação - E A D G

||--------------------------------------
||--------------5-4-5-4-5-4-5-----------  (7x)
||-2--5---5-7-7--------------5-5-7-7----
||--------------------------------------

||--------------------------------------
||--------------------------------------  (x2)
||-------5------------------------------
||--7--7---7--6--5--5--5--0--4--5--5--6-

||--------------------------------------
||--------------------------------------
||-------5------------------------------
||--7--7---7--6--5--5--5----------------

||--------------------------------------
||--------------5-4-5-4-5-4-5-----------  (4x)
||-2--5---5-7-7--------------5-5-7-7----
||--------------------------------------

||--------------------------------------
||--------------------------------------
||--7...---5...-------------------------
||--------------------------------------

||---------------------------------------  
||-------------------7-8-9---------------  (2x)
||-----5-6-7--7-8-9----------------------
||-7-7-----------------------------------

||--------------------------------------
||--------------------------------------
||--7...---5...-------------------------
||--------------------------------------

||---------------------------------------  (2x)
||-------------------7-8-9---------------
||-----5-6-7--7-8-9----------------------
||-7-7-----------------------------------

||--------------------------------------
||--------------5-4-5-4-5-4-5-----------   (4x)
||-2--5---5-7-7--------------5-5-7-7----
||--------------------------------------

||--------------------------------------
||--------------------------------------
||--7...---5...-------------------------
||--------------------------------------

||---------------------------------------  
||-------------------7-8-9---------------  (2x)
||-----5-6-7--7-8-9----------------------
||-7-7-----------------------------------

||--------------------------------------
||--------------------------------------
||--7...---5...-------------------------
||--------------------------------------

||---------------------------------------  (2x)
||-------------------7-8-9---------------
||-----5-6-7--7-8-9----------------------
||-7-7-----------------------------------


||-6-4-----------------------------------  (2x)
||-----6-5-4-2---------------------------
||-------------0h2-4-4-------------------
||---------------------------------------


Entra o solo de guitarra
(Nesse ponto o baixo faz um acompanhamento que não pude identificar. Se alguém souber, por favor me mande um E-Mail para eu adicionar. Lucasdguerra@yahoo.com.br)
Acaba o solo


||-6-4-----------------------------------  (2x)
||-----6-5-4-2---------------------------
||-------------0h2-4-4-------------------
||---------------------------------------

||---------------------------------------  (3x)
||-------------------7-8-9---------------
||-----5-6-7--7-8-9----------------------
||-7-7-----------------------------------

||--------------------------------------
||--------------5-4-5-4-5-4-5-----------  (4x)
||-2--5---5-7-7--------------5-5-7-7----
||--------------------------------------

||--------------------------------------
||--------------------------------------  (x2)
||-------5------------------------------
||--7--7---7--6--5--5--5--0--4--5--5--6-

||--------------------------------------
||--------------------------------------
||-------5------------------------------
||--7--7---7--6--5--5--5----------------

(Espera a bateria e começa)

||--------------------------------------
||-------------------------4-5-4-5-4----  (8x)
||-7-5-7---5-7-5---7-5-7--------------5-
||--------------------------------------

||---------------------------------------------|
||-------------------------4-5-4-5-4-----------|
||-7-5-7---5-7-5---7-5-7--------------5-7-5-7--|
||---------------------------------------------|

Composição de Bill Ward / Geezer Butler / Ozzy Osbourne / Tony Iommi
Colaboração e revisão:
  • Mateus Specht
  • Lucas D'Marco
3.719 exibições

0 comentários

Mostrar mais comentários
00:00 / 00:00
outros vídeos desta música
repetir qualidade Automático
Outros vídeos desta música
00:00 / 00:00
Automático

Cifra Club Pro

Aproveite o Cifra Club com benefícios exclusivos e sem anúncios
7 dias grátis
Cifra Club Pro
Aproveite o Cifra Club com benefícios exclusivos e sem anúncios
7 dias grátis
OK