Cifra Club

Down

blink-182

Tab de baixo: Principal
Blink182 - Down

Introdução guitarra 4x

Entra o baixo:
G:--------------------------------------------|
D:--------------------------------------------|
A:--2-2-2-2-2-2-2>3---------------------------| - 2x
E:------------------4-4-4----6-6-6------------|

Parte 1:

G:--------------------------------------------|
D:--------------------------------------------|
A:--2-2-2-2-2-2-2>3---------------------------| - 4x
E:------------------4-4-4----6-6-6------------|

E:--0-----------------------------------------|

Pré-Refrão:

G:--------------------------------------------|
D:--------------------------------------------|
A:--------------------2-2-2-------------------|
E:--4-4-4----6-6-6-------------2-2-2-2-2-2----|

G:--------------------------------------------|
D:--------------------------------------------|
A:--------------------------------------------|
E:--4-4-4----6-6-6----------------------------|

Refrão:

Down, down, down, down...
G:--------------------------------------------|
D:--------------------------------------------|
A:--2-2-2-2-2-2-2-2-----------7-7-7-7-7-7-7-7-| - 4x
E:--------------------------------------------|

Introdução guitarra 2x

Parte 2:

G:--------------------------------------------|
D:--------------------------------------------|
A:--2-2-2-2-2-2-2>3---------------------------| - 4x
E:------------------4-4-4----6-6-6------------|

E:--0-----------------------------------------|

Pré-Refrão:

G:--------------------------------------------|
D:--------------------------------------------|
A:--------------------2-2-2-------------------|
E:--4-4-4----6-6-6-------------2-2-2-2-2-2----|

G:--------------------------------------------|
D:--------------------------------------------|
A:--------------------------------------------|
E:--4-4-4----6-6-6----------------------------|

Refrão:

Down, down, down, down...
G:--------------------------------------------|
D:--------------------------------------------|
A:--2-2-2-2-2-2-2-2-----------7-7-7-7-7-7-7-7-| - 4x
E:--------------------------------------------|

Finalização:

A:--2-----------------------------------------| - 9x

_______________________________________________________
Contribuição: Roberto Kenji(hydero@pop.com.br)
exibições 17.561
Composição: blink-182

0 comentários

mostrar mais comentários

Conseguiu tocar?

2 tocaram 0 ainda não

Grave um vídeo tocando Down e mande pra gente!

00:00 / 00:00
outros vídeos desta música
repetir qualidade Automático
Outros vídeos desta música
00:00 / 00:00
Automático
OK