Notificações Amigos pendentes

      Charlie Brown Jr.

      Não Uso Sapato

      507.817 exibições
      Tom: G
      Intro:
      
            C             E             D             C
      
      E |--------------------------------------------------------|
      B|---------0-1-3---------0-1-3---------0-1-3---------------|
      G|---0-0-0---------0-0-0---------0-0-0---------------------| (4x)
      D|-----------------------------0---------------0-0-0---0---|
      A|-3-----------------------------------------3-------3---0-|
      E|---------------0-----------------------------------------|
      
      
      G        A        C
        Eu vou   mudar tudo que não me convém,
      G                           D
      hoje eu tenho tudo o que podia querer
              C
      mas dinheiro não é tudo tenho muito a fazer.
      
            (2x)     G   A      C                G   D      C
      
      E |---------|----------|----------------|----------|-7777-/-1010101010-|
      B|-------8-|-888--888-|-121212--121212-|-888--777-|-xxxx---x-x-x-x-x--|
      G|----7----|-xxx--xxx-|-x-x-x---x-x-x--|-xxx--xxx-|-5555---7-7-7-7-7--|
      D|-5-------|-555--555-|-9-9-9---9-9-9--|-555--444-|-------------------|
      A|---------|----------|----------------|----------|-------------------|
      E|---------|----------|----------------|----------|-------------------|
      
      
          G                           A
      Quem não respeita o pai, não respeita ninguém
                  C
      por que um homem de verdade vai ser pai também
      G               D
      Ame o seu pai, mesmo se ele for
         C
      Um porco capitalista
      
      (Refrão)
      
        G         D           C
      Eu não sei   fazer poesia
                 G          A (solo 1)  C
      mais que se foda!
      
      G                          D/F#        C
      eu odeio gente chick e não uso sapato.
                     G          A (solo 2)   C
      mais que se foda!
      
      Solo 1:
      
      
      E |---------------------------|
      B|--------0h1-0h1------------|
      G|----------------0--------0-|
      D|------------------0----0---|
      A|-2/3-33--------------3-----|
      E|---------------------------|
      
      
      (solo 2)
      
      E |---------------------------------|
      B|---------------------------------|
      G|---------------------------------|
      D|-7/9--9/12-12--9-12-9------------|
      A|----------------------12-10------|
      E|---------------------------------|
      
      
      
      (Intro)
      
      G                         A
      Hoje você picha, quem já te ajudou
         C
      e vem falando mau de quem já te fortaleceu
             G                           D
      Mas o mau vem em verdade e não se passa por palavras
        C
      Você perdeu a moral e quem perdeu, perdeu.
          G                       A                   C
      Se você pisar na bola ei rapaz você vai ser cobrado
          G                       D                   C
      Se você pisar na bola ei muleque tu vai ser cobrado
      
      Refrão:
      
       G         D           C
      Eu não sei   fazer poesia
                    G          A (solo 1) C
      mais que se foda!
      G                          D/F#        C
      eu odeio gente chick e não uso sapato.
                     G          A (solo 2) C
      mais que se foda!
      
      (G A C) 4x (Palm-Muting)
      Auê, auê, auê, auêêêêêêê...!!!!
      Everybody move !!! Everybody move !!! Everybody move !!!
      move !!!  move !!! moveeeee.... !!!
      
      (Refrão)
      
       G         D           C
      Eu não sei   fazer poesia
                    G          A (solo 1) C
      mais que se foda!
      G                          D/F#        C
      eu odeio gente chick e não uso sapato.
                     G          A (solo 2) C
      mais que se foda!
      
      ( A  C  A  C  G )
      
      
      E|-------|-------|         e|----|
      B|-------|-------|         B|----|
      G|-------|-5-5-5-|  (2x)   G|-4--| (1x)
      D|-7-7-7-|-5-5-5-|         D|-5--|
      A|-7-7-7-|-3-3-3-|         A|-5--|
      E|-5-5-5-|-------|         E|-3--|
      
        Composição: Chorão, Marcão, Champignon E PeladoColaboração e revisão:
        • Breno Bernardes
        • Marduko
        • Rick
        • Jaspion
        • +4

        Comentários 19

        140 .
        • cassiabuzios cassiabuzios: Em 01/10/2015 14:11

          #AUTÊNTICA#... Amei cantar e tocá-la ao violão.

        • lucas lucas: Em 01/06/2015 22:10

          manda a video aula

        • Matheus Matheus: Em 08/09/2014 01:39

          Video Aula ae....

        • hcjhonatan12 hcjhonatan12: Em 12/05/2014 00:03

          meio tom abaixo ne??

        • João Pedro João Pedro: Em 27/01/2014 22:14

          essa cifra é boa, mas ainda não tá 100%.. vou tentar mandar do jeito q eu toco

          • loran.braga loran.braga: Em 01/02/2014 21:32

            manda ai pedro , nao ta saindo o solo aki :/

        • pierrearaujo15 pierrearaujo15: Em 23/12/2013 16:14

          very easy

        • Dan Dan: Em 15/10/2013 11:24

          Qual o Ritmo ?

        • rafael_zete rafael_zete: Em 02/07/2013 19:50

          Video aula here plx

        • radrianogusmao radrianogusmao: Em 16/05/2013 10:11

          massa demais e facil tmb

        140 cancelar

        conseguiu tocar?

        • •••

        covers

        Grave um vídeo tocando Não Uso Sapato e mande pra gente!

        Ex.: http://www.youtube.com/watch?v=0IvSvIwGdwk
        ver covers de outras músicas »
        0:00 / 0:00

        Capítulos

          1 versão de baixo exibições contribuição e correção
          2 versões de Guitar Proformatodownloadscontribuição
          play/pausefechar subir/descer velocidade
          6ª corda E5ª corda A4ª corda D3ª corda G2ª corda B1ª corda E
            acordes
            publicidade
            fechar
            ok