Cifra Club

O Coro Vai Comê!

Charlie Brown Jr.

Cifra: Principal (violão e guitarra)
tom: Cm
[Intro] Cm7  Eb  Cm7  Eb
        Cm7  Eb  Cm7  Eb

E|------------------------------------------|
B|------------------------------------------|
G|------------------------------------------|
D|-----5~--5-3------------------------------|
A|-3~----------6---6-6-5-6-5-6--------------|
E|------------------------------------------|

E|------------------------------------------|
B|------------------------------------------|
G|------------------------------------------|
D|-----5~--5-3------------------------------|
A|-3~----------6---6-6-5-6-5-6-3\-----------|
E|------------------------------------------|

[Primeira Parte]

 Cm7                    Eb
Corra vá ver o que acontece
                       Cm7
E volte aqui pra me falar
                        Eb
O que parou a cidade inteira novamente

Cm7                 
Acordou todo mundo
Eb
   Mulherada muito loca
             Cm7  Eb
Com doce na boca!

[Refrão]

 Cm7                    Eb
Meu tu não sabe o que aconteceu!
    Cm7    
Os caras do Charlie Brown
     Eb
Invadiram a cidade!
  Cm7                                   
Chame sua mae seu cachorro e sua sogra
  Eb
Traga todo mundo
              Cm7  Eb
O coro vai comê!

Cm7
    Give it up hey!
Eb                                
   Do you really wanna do it boy
Cm7         Eb
    Come on
Cm7
    Give it up hey,hey,hey!
Eb                                Cm7  Eb 
   Do you really wanna do it boy

( Cm7  Eb  Cm7  Eb )

E|------------------------------------------|
B|------------------------------------------|
G|------------------------------------------| (4x)
D|-----5~--5-3------------------------------|
A|-3~----------6---6-6-5-6-5-6--------------|
E|------------------------------------------|

          Cm7
You got a biron bacon xotonson
     Eb
Give up  legalize!
  Cm7                  Eb
Travazon , rasga rasgazon

Travazon yeah

Cm7
    Não vou nem me preocupar
 Eb
Velha chata vai pra lá
 Cm7  Eb
Yeah

[Primeira Parte]

Eu disse
 Cm7                    Eb
Corra vá ver o que acontece
                       Cm7
E volte aqui pra me falar
                        Eb
O que parou a cidade inteira novamente
Cm7                 
Acordou todo mundo
Eb
   Mulherada muito loca
             Cm7  Eb
Com doce na boca!

[Refrão]

E|------------------------------------------|
B|------------------------------------------|
G|------------------------------------------| (16x)
D|-----5~--5-3------------------------------|
A|-3~----------6---6-6-5-6-5-6--------------|
E|------------------------------------------|

 Cm7                    Eb
Meu tu não sabe o que aconteceu!
    Cm7    
Os caras do Charlie Brown
     Eb
Invadiram a cidade!
  Cm7                                   
Chame sua mae seu cachorro e sua sogra
  Eb
Traga todo mundo
              Cm7  Eb
O coro vai comê!

 Cm7                    Eb
Meu tu não sabe o que aconteceu!
    Cm7    
Os caras do Charlie Brown
     Eb
Invadiram a cidade!
  Cm7                                   
Chame sua mae seu cachorro e sua sogra
  Eb
Traga todo mundo
              Cm7  Eb
O coro vai comê!

Cm7
    Give it up hey!
Eb                               Cm7  Eb
   Do you really wanna do it boy
Cm7
    Give it up hey!
Eb                               Cm7  Eb
   Do you really wanna do it boy
Cm7
    Give it up hey!
Eb                               Cm7  Eb
   Do you really wanna do it boy
Cm7
    Give it up hey,hey,hey!
 Eb 
    Do yo u really wanna do it boy

Charlie Brown

[Final] Cm7  Gm  Cm7
00:00 / 00:00
Outros vídeos desta música
Repetir
Outros vídeos desta música
Composição de Champignon / Chorão / Marcão / Pelado / Thiago Castanho
Colaboração e revisão:
  • Lucas Kappaun
  • renato rato
  • Calili Santos
227.483 exibições
    • ½ Tom
    • Am
    • Bbm
    • Bm
    • Cm
    • C#m
    • Dm
    • Ebm
    • Em
    • Fm
    • F#m
    • Gm
    • G#m
  • Adicionar à lista

    0 comentários

    Ver todos os comentários

    Conseguiu tocar?

    17 Tocaram 1 Ainda não

    Grave um vídeo tocando O Coro Vai Comê! e nos envie!

    Entre para oCifra Club PRO

    Tenha acesso a benefícios exclusivos no App e no Site

    • Chega de anúncios

    • Prioridade de compra em lançamentos

    • Mais recursos no app do Afinador

    • Atendimento Prioritário

    • Descontos nos produtos Cifra Club

    • Ajude a produzir mais conteúdo

    00:00 / 00:00

    Cifra Club Pro

    Aproveite o Cifra Club com benefícios exclusivos e sem anúncios
    Cifra Club Pro
    Aproveite o Cifra Club com benefícios exclusivos e sem anúncios
    OK