Cifra Club

A Música No Ar

Edson e Hudson

Cifra: Principal (violão e guitarra)
tom: Ab
E|------------------------------------------------------|
B|------------------------------------------------------|
G|---5h7---5---4h5h4--0-0------0h2-0-0h2----------------|
D|---5-----5---5------0-0----0-------0------------------|
A|------------------------------------------------------|
E|------------------------------------------------------|

E|------------------------------------------------------|
B|------------------------------------------------------|
G|---5h7--5--4h5h4--0-0--0h2--2h0--2-2h0--2h4--2h0--0---|
D|---5----5--5------0-0--0----0----0-0----0----0----0---|
A|------------------------------------------------------|
E|------------------------------------------------------|

E|------------------------------------------------------|
B|------------------------------------------------------|
G|--5h7--5--4h5h4--0-0--0h2--2h0--2h4--2--0-------------|
D|--5----5--5------0-0--0----0----0----0--0-------------|
A|------------------------------------------------------|
E|------------------------------------------------------|

[Intro] Ab  Eb  Ab 

Ab
A força da canção invade o coração
Eb                           Ab
O show vai começar e não tem hora pra acabar
É pura emoção cantar para vocês
  Eb                 Ab
Energia que vem de uma vez

Ab
O povo bate palma, a galera se agita
Eb                         Ab
E a gente faz o som que a gente acredita
Sem ter medo de encarar ter coragem pra mudar
       Eb    Ab
É assim  que vamos cantar

Db              Ab
  E vamos cantar
             Db
E contagiar
Quero ouvir vocês
Eb
Iê,iê, iê, iê todos de uma vez

                   Db
Eu vou junto com a multidão
              Ab
Na batida do meu coração
          Eb                       Ab  Ab7
E o povo canta, grita, dança sem parar
                  Db
Que parado não dá pra ficar
                Ab
Sem querer você vai se entregar
          Gb            Db          Eb
E a cada dia um novo show vai começar
(Ab  Eb  Ab)
É a música no ar

( Ab  Eb  Ab )

Ab
O povo bate palma, a galera se agita
Eb                         Ab
E a gente faz o som que a gente acredita
Sem ter medo de encarar ter coragem pra mudar
       Eb    Ab
É assim  que vamos cantar

Db              Ab
  E vamos cantar
             Db
E contagiar
Quero ouvir vocês
Eb
Iê, iê, iê, iê, todos de uma vez

                   Db
Eu vou junto com a multidão
              Ab
Na batida do meu coração
          Eb                       Ab  Ab7
E o povo canta, grita, dança sem parar
                  Db
Que parado não dá pra ficar
                Ab
Sem querer você vai se entregar
          Gb            Db          Eb
E a cada dia um novo show vai começar
 Ab  Eb  Ab
É a música no ar

( Ab  Eb  Ab )

             Db
Quero ouvir vocês
Eb
Iê, iê, iê, iê todos de uma vez

 Db
(Quero ouvir, quero ouvir, quero ouvir)

                   Db
Eu vou junto com a multidão
              Ab
Na batida do meu coração
          Eb                       Ab  Ab7
E o povo canta, grita, dança sem parar
                  Db
Que parado não dá pra ficar
                Ab
Sem querer você vai se entregar
          Gb            Db          Eb
E a cada dia um novo show vai começar
 Ab  Eb  Ab
É a música no ar

( Ab  Eb  Ab )

E aí Edson?
Tudo bem, Hudson?
Beleza
Vamos agitar?
Mas como?
No embalo da canção
De chapéu, bota e cinturão

Ei
Eu quero agitar no embalo da canção
De chapéu, bota e cinturão

( Ab  Eb  Ab )
00:00 / 00:00
Outros vídeos desta música
Repetir
Outros vídeos desta música
Compositor não encontrado.
Colaboração e revisão:
  • Vinicius Baio
  • Adriano Fachin
  • Ricardo Uehara
91.595 exibições
    • ½ Tom
    • A
    • Bb
    • B
    • C
    • Db
    • D
    • Eb
    • E
    • F
    • F#
    • G
    • Ab
  • Adicionar à lista

    0 comentários

    Ver todos os comentários

    Entre para oCifra Club PRO

    Tenha acesso a benefícios exclusivos no App e no Site

    • Chega de anúncios

    • Prioridade de compra em lançamentos

    • Mais recursos no app do Afinador

    • Atendimento Prioritário

    • Descontos nos produtos Cifra Club

    • Ajude a produzir mais conteúdo

    00:00 / 00:00

    Cifra Club Pro

    Aproveite o Cifra Club com benefícios exclusivos e sem anúncios
    Cifra Club Pro
    Aproveite o Cifra Club com benefícios exclusivos e sem anúncios
    OK