Cifra Club

It's All About The Benjamins

Foo Fighters

Cifra: Principal (violão e guitarra)
tom: G
e|------------------------------------------------------| 
B|------------------------------------------------------| 
G|--------------------3-3-3----------------------3-3-3--| 
D|--5---5-5-5--3/5--3-3-3-3----5---5-5-5--3/5--3-3-3-3--| 
A|--5---5-5-5--3/5--3-1-1-1----5---5-5-5--3/5--3-1-1-1--| 
E|--3---3-3-3--1/3--1----------3---3-3-3--1/3--1--------| 
 
e|----------------------------------------| 
B|----------------------------------------| 
G|----------------------------------------| 
D|----------------------------------------| (4x) 
A|--11-9-7-5-3~-1-------------------------| 
E|----------------------------------------| 
 
e|----------------------------------------| 
B|----------------------------------------| 
G|---------------------3-3-3--------------| 
D|---5---5-5-5--3/5--3-3-3-3--------------| (8x) 
A|---5---5-5-5--3/5--3-1-1-1--------------| 
E|---3---3-3-3--1/3--1--------------------| 
 
e|----------------------------------------| 
B|----------------------------------------| 
G|-------5-(5)---3------------------------| 
D|--5----5-(5)---3---3-(3)----------------| (3x) 
A|--5----3-(3)---1---3-(3)----------------| 
E|--3----------------1-(1)----------------| 
 
e|----------------------------------------| 
B|----------------------------------------| 
G|----------------------------------------| 
D|----------------------------------------| 
A|--1-1-3-5-7-9--11-9-7-5-3~-1------------| 
E|----------------------------------------| 
 
e|-----------------------------|----------| 
B|-----------------------------|----------| 
G|---------------------3-3-3---|----------| 
D|---5---5-5-5--3/5--3-3-3-3---|---5------| 
A|---5---5-5-5--3/5--3-1-1-1---|---5------| 
E|---3---3-3-3--1/3--1---------|---3------| 
 (7x) 
 
e|--------------|-------------------------| 
B|--------------|-------------------------| 
G|--------------|-------------------------| 
D|--------------|-------------------------| 
A|--1-1-3-5-7-9-|-11-9-7-5-3~-1-----------| 
E|--------------|-------------------------| 
                (6x) 
 
e|----------------------------------------| 
B|----------------------------------------| 
G|---------------------3-3-3--------------| 
D|---5---5-5-5--3/5--3-3-3-3--5-----------| 
A|---5---5-5-5--3/5--3-1-1-1--5-----------| 
E|---3---3-3-3--1/3--1--------3-----------| 
 
e|----------------------------------------| 
B|----------------------------------------| 
G|------3-(3)-----------------------3-(3)-| 
D|--5---3-(3)---3---2-(2)-------5---3-(3)-| 
A|--5---1-(1)---3---2-(2)---3X--5---1-(1)-| 
E|--3-----------1---0-(0)------ 3---------| 
 
e|------|-------|-------|-----------------| 
B|------|-------|-------|-----------------| 
G|------|-------|-------|-----------------| 
D|--7---|---5---|---3---|---2-------------| (4x) 
A|--7---|---5---|---3---|---2-------------| 
E|--5---|---3---|---1---|---0-------------| 
 (8x)   (8x)    (8x) 
 
Outro 
e|----------------------------------------| 
B|----------------------------------------| 
G|----------------------------------------| 
D|----------------------------------------| (7x) 
A|--11-9-7-5-3~-1-------------------------| 
E|----------------------------------------|

00:00 / 00:00
Outros vídeos desta música
Repetir
Outros vídeos desta música
Compositor não encontrado.
Colaboração e revisão:
  • Felipe Mardegan
913 exibições
    • ½ Tom
    • A
    • Bb
    • B
    • C
    • Db
    • D
    • Eb
    • E
    • F
    • F#
    • G
    • Ab
  • Adicionar à lista

    0 comentários

    Ver todos os comentários

    Entre para oCifra Club PRO

    Tenha acesso a benefícios exclusivos no App e no Site

    • Chega de anúncios

    • Prioridade de compra em lançamentos

    • Mais recursos no app do Afinador

    • Atendimento Prioritário

    • Descontos nos produtos Cifra Club

    • Ajude a produzir mais conteúdo

    00:00 / 00:00

    Cifra Club Pro

    Aproveite o Cifra Club com benefícios exclusivos e sem anúncios
    Cifra Club Pro
    Aproveite o Cifra Club com benefícios exclusivos e sem anúncios
    OK