Cifra Club

Back In Bahia

Gilberto Gil

Tab de baixo: Principal
G------\
D------ \ 8 vezes
A-0-0-0 /
E------/

G--------------------\
D-------------------- \ 1 vez
A-0-5-5--5-5-5--5-0-0 /
E--------------------/

G---------------------------\
D--------------------------- \5 vezes
A-0-0-0--0-7-7--7-5-5--5-0-0 /
E---------------------------/

G----------------\
D---------0-2-4-0 \4 vezes
A-0-0-2-4-------- /
E----------------/

G---------0-2-4-0\          \
D-0-0-2-4-------- \2 vezes   \
A---------------- /           \
E----------------/             \
                                > Fica até o fim
G----------------\             /
D---------0-2-4-0 \2 vezes    /
A-0-0-2-4-------- /          /
E----------------/          /



_______________________________________________________
Contribuição: Pedro Corrêa Abrantes Pinheiro(pedrocap@hotmail.com)
Composição de Gilberto Gil
4.473 exibições

0 comentários

Ver todos os comentários

Conseguiu tocar?

0 Tocaram 0 Ainda não

Grave um vídeo tocando Back In Bahia e nos envie!

00:00 / 00:00
Outros vídeos desta música
Repetir Qualidade Automático
Outros vídeos desta música
00:00 / 00:00
Automático

Cifra Club Pro

Aproveite o Cifra Club com benefícios exclusivos e sem anúncios
Cifra Club Pro
Aproveite o Cifra Club com benefícios exclusivos e sem anúncios
OK