Cifra Club

Aprenda

Ain't It Fun

Guns N' Roses

Tab de baixo: Principal
                Ain't It Fun                 

Basse
     W                   W                 
G||-------------------|-------------------|
D||-------------------|-------------------|
A||-------------------|-------------------|
E||-------------------|-------------------|

  W                   H        Q    E  E   
-------------------|----------------------|
-------------------|-------------------4--|
-------------------|----------------------|
-------------------|----------------------|

  W                   Q    Q    H         
-------------------|---------------------|
-------------------|---------------------|
--2----------------|---------------------|
-------------------|---------------------|

  W                   H        Q    E  E   
-------------------|----------------------|
-------------------|-------------------4--|
-------------------|--2--------L----L-----|
-------------------|----------------------|

  Q    E  E  Q    E  E   
------------------------|
------------------------|
--2----L--2--2----2--2--|
------------------------|

  Q    E  E  Q    E  E   
------------------------|
------------------------|
--5----L--5--0----0--0--|
------------------------|

  Q    E  E  Q    E  E   
------------------------|
------------------------|
------------------------|
--3----L--3--3----3--3--|

  Q    E  E  Q    E  E   
------------------------|
------------------------|
--2----L--2--2----2--2--|
------------------------|

  Q    E  E  Q    E  E   
------------------------|
------------------------|
--2----L--2--2----2--2--|
------------------------|

  Q    E  E  Q    E  E   
------------------------|
------------------------|
--5----L--5--0----0--0--|
------------------------|

  Q    E  E  Q    E  E   
------------------------|
------------------------|
------------------------|
--3----L--3--3----3--3--|

  Q    E  E  Q    E  E   
------------------------|
------------------------|
--2----L--2--2----2--2--|
------------------------|

  Q    E  E  Q    E  E   
------------------------|
------------------------|
--2----L--2--2----2--2--|
------------------------|

  Q    E  E  Q    E  E   
------------------------|
------------------------|
--5----L--5--0----0--0--|
------------------------|

  Q    E  E  Q    E  E   
------------------------|
------------------------|
------------------------|
--3----L--3--3----3--3--|

  Q    E  E  Q    E  E   
------------------------|
------------------------|
--2----L--2--2----2--2--|
------------------------|

  Q    E  E  Q    E  E   
------------------------|
------------------------|
--5----L--5--0----0--0--|
------------------------|

  Q    E  E  Q    E  E   
------------------------|
------------------------|
--2----L--2-------------|
-------------3----3--3--|

  Q    E  E  Q    E  E   
------------------------|
------------------------|
--5----L--5--0----0--0--|
------------------------|

  Q    E  E  Q    E  E   
------------------------|
------------------------|
--2----L--2--2----2--2--|
------------------------|

  Q    E  E  Q    E  E   
------------------------|
------------------------|
--5----L--5--0----0--0--|
------------------------|

  Q    E  E  Q    E  E   
------------------------|
------------------------|
--2----L--2-------------|
-------------3----3--3--|

  Q    E  E  Q    E  E   
------------------------|
------------------------|
--5----L--5--0----0--0--|
------------------------|

  Q    E  E  Q    E  E   
------------------------|
------------------------|
--2----L--2--2----2--2--|
------------------------|

  Q    E  E  Q    E  E   
------------------------|
------------------------|
--2----L--2--2----2--2--|
------------------------|

  Q    E  E  Q    E  E   
------------------------|
------------------------|
--5----L--5--0----0--0--|
------------------------|

  Q    E  E  Q    E  E   
------------------------|
------------------------|
------------------------|
--3----L--3--3----3--3--|

  Q    E  E  Q    E  E   
------------------------|
------------------------|
--2----L--2--2----2--2--|
------------------------|

  Q    E  E  Q    E  E   
------------------------|
------------------------|
--2----L--2--2----2--2--|
------------------------|

  Q    E  E  Q    E  E   
------------------------|
------------------------|
--5----L--5--0----0--0--|
------------------------|

  Q    E  E  Q    E  E   
------------------------|
------------------------|
--2----L--2--2----2--2--|
------------------------|

  Q    E  E  Q    E  E   
------------------------|
------------------------|
--2----L--2--2----2--2--|
------------------------|

  Q    E  E  Q    E  E   
------------------------|
------------------------|
------------------------|
--3----L--3--3----3--3--|

  Q    E  E  Q    E  E   
------------------------|
------------------------|
--2----L--2--2----2--2--|
------------------------|

  Q    E  E  Q    E  E   
------------------------|
------------------------|
------------------------|
--3----L--3--3----3--3--|

  Q    E  E  Q    E  E   
------------------------|
------------------------|
--2----L--2--2----2--2--|
------------------------|

  Q    E  E  Q    E  E   
------------------------|
------------------------|
--5----L--5--0----0--0--|
------------------------|

  Q    E  E  Q    E  E   
------------------------|
------------------------|
--2----L--2-------------|
-------------3----3--3--|

  Q    E  E  Q    E  E   
------------------------|
------------------------|
--5----L--5--0----0--0--|
------------------------|

  E  E  E  E  E  E  E  E   
--------------------------|
--------------------------|
--2--2--2--2--2--2--2--2--|
--------------------------|

  E  E  E  E  E  E  E  E   
--------------------------|
--------------------------|
--2--2--2--2--2--1--0-----|
-----------------------4--|

  E  E  E  E  E  E  E  E   
--------------------------|
--------------------------|
--------------------------|
--3--3--3--3--L--3--3--3--|

  E  E  E  E  E  E  E  E   
--------------------------|
--------------------------|
--0--0--0--0--L--0--0--0--|
--------------------------|

  E  E  E  E  E  E  E  E   
--------------------------|
--------------------------|
--2--2--2--2--L--2--2--2--|
--------------------------|

  E  E  E  E  E  E  E  E   
--------------------------|
--------------------------|
--2--2--2--2--L--2--2--2--|
--------------------------|

  E  E  E  E  E  E  E  E   
--------------------------|
--------------------------|
--------------------------|
--3--3--3--3--L--3--3--3--|

  E  E  E  E  E  E  E  E   
--------------------------|
--------------------------|
--0--0--0--0--L--0--0--0--|
--------------------------|

  E  E  E  E  E  E  E  E   
--------------------------|
--------------------------|
--2--2--2--2--L--2--2--2--|
--------------------------|

  E  E  E  E  E  E  E  E   
--------------------------|
--------------------------|
--2--2--2--2--L--2--2--2--|
--------------------------|

  E  E  E  E  E  E  E  E   
--------------------------|
--------------------------|
--------------------------|
--3--3--3--3--L--3--3--3--|

  E  E  E  E  E  E  E  E   
--------------------------|
--------------------------|
--0--0--0--0--L--0--0--0--|
--------------------------|

  H        Q    E  E   
----------------------|
-------------------4--|
--2--------L----L-----|
----------------------|

  Q    E  E  Q    E  E   
------------------------|
------------------------|
--5----L--5--0----0--0--|
------------------------|

  Q    E  E  Q    E  E   
------------------------|
------------------------|
------------------------|
--3----L--3--3----3--3--|

  Q    E  E  Q    E  E   
------------------------|
------------------------|
--2----L--2--2----2--2--|
------------------------|

  H        Q    E  E   
----------------------|
-------------------4--|
--2--------L----L-----|
----------------------|

  Q    E  E  Q    E  E   
------------------------|
------------------------|
--5----L--5--0----0--0--|
------------------------|

  Q    E  E  Q    E  E   
------------------------|
------------------------|
------------------------|
--3----L--3--3----3--3--|

  Q    E  E  Q    E  E   
------------------------|
------------------------|
--2----L--2--2----2--2--|
------------------------|

  Q    E  E  Q    E  E   
------------------------|
------------------------|
--2----L--2--2----2--2--|
------------------------|

  Q    E  E  Q    E  E   
------------------------|
------------------------|
--5----L--5--5----5--5--|
------------------------|

  Q    E  E  Q    E  E   
------------------------|
------------------------|
------------------------|
--3----L--3--3----3--3--|

  Q    E  E  Q    E  E   
------------------------|
------------------------|
--2----L--2--2----2--2--|
------------------------|

  Q    E  E  Q    E  E   
------------------------|
------------------------|
------------------------|
--3----L--3--3----3--3--|

  Q    E  E  Q    E  E   
------------------------|
------------------------|
--2----L--2--2----2--2--|
------------------------|

  Q    E  E  Q    E  E   
------------------------|
------------------------|
------------------------|
--3----L--3--3----3--3--|

  Q    E  E  Q    E  E   
------------------------|
------------------------|
--2----L--2--2----2--2--|
------------------------|

  Q    E  E  Q    E  E   
------------------------|
------------------------|
--5----L--5--0----0--0--|
------------------------|

  Q    E  E  Q    E  E   
------------------------|
------------------------|
--2----L--2-------------|
-------------3----3--3--|

  Q    E  E  Q    E  E   
------------------------|
------------------------|
--5----L--5--0----0--0--|
------------------------|

  E  E  E  E  E  E  E  E   
--------------------------|
--------------------------|
--2--2--2--2--2--2--2--2--|
--------------------------|

  E  E  E  E  E  E  E  E   
--------------------------|
--------------------------|
--2--2--2--2--2--1--0-----|
-----------------------4--|

  E  E  E  E  E  E  E  E   
--------------------------|
--------------------------|
--------------------------|
--3--3--3--3--3--3--3--3--|

  E  E  E  E  E  E  E  E   
--------------------------|
--------------------------|
--0--0--0--0--0--0--0--0--|
--------------------------|

  E  E  E  E  E  E  E  E   
--------------------------|
--------------------------|
--5--5--5--5--5--5--5--5--|
--------------------------|

  E  E  E  E  E  E  E  E   
--------------------------|
--------------------------|
--2--2--2--2--2--2--2--2--|
--------------------------|

  E  E  E  E  E  E  E  E   
--------------------------|
--------------------------|
--------------------------|
--3--3--3--3--3--3--3--3--|

  E  E  E  E  E  E  E  E   
--------------------------|
--------------------------|
--0--0--0--0--0--0--0--0--|
--------------------------|

  E  E  E  E  E  E  E  E   
--------------------------|
--------------------------|
--5--5--5--5--5--5--5--5--|
--------------------------|

  E  E  E  E  E  E  E  E   
--------------------------|
--------------------------|
--2--2--2--2--2--2--2--2--|
--------------------------|

    E  E  E  E  E  E  E  E   
|---------------------------|
|*--------------------------|
|*--------------------------|
|---3--3--3--3--L--3--3--3--|

  E  E  E  E  E  E  E  E   
--------------------------|
--------------------------|
--0--0--0--0--L--0--0--0--|
--------------------------|

  E  E  E  E  E  E  E  E   
--------------------------|
--------------------------|
--2--2--2--2--L--2--2--2--|
--------------------------|

  E  E  E  E  E  E  E  E   3x
---------------------------||
--------------------------*||
--2--2--2--2--L--2--2--2--*||
---------------------------||

  E  E  E  E  E  E  E  E   
--------------------------|
--------------------------|
--------------------------|
--3--3--3--3--L--3--3--3--|

  E  E  E  E  E  E  E  E   
--------------------------|
--------------------------|
--0--0--0--0--L--0--0--0--|
--------------------------|

  E  E  E  E  E  E  E  E   
--------------------------|
--------------------------|
--2--2--2--2--L--2--2--2--|
--------------------------|

  E  E  E  E  E  E  E  E   
--------------------------|
--------------------------|
--2--2--2--2--L--2--2--2--|
--------------------------|

  Q    E  E  Q    E  E   
------------------------|
------------------------|
--2----L--2--2----2--2--|
------------------------|

  Q    E  E  Q    E  E   
------------------------|
------------------------|
--5----L--5--0----0--0--|
------------------------|

  Q    E  E  Q    E  E   
------------------------|
------------------------|
------------------------|
--3----L--3--3----3--3--|

  Q    E  E  Q    E  E   
------------------------|
------------------------|
--2----L--2--2----2--2--|
------------------------|

  Q    E  E  Q    E  E   
------------------------|
------------------------|
--2----L--2--2----2--2--|
------------------------|

  Q    E  E  Q    E  E   
------------------------|
------------------------|
--5----L--5--0----0--0--|
------------------------|

  Q    E  E  Q    E  E   
------------------------|
------------------------|
------------------------|
--3----L--3--3----3--3--|

  Q    E  E  Q    E  E   
------------------------|
------------------------|
--2----L--2--2----2--2--|
------------------------|

  Q    E  E  Q    E  E   
------------------------|
------------------------|
--2----L--2--2----2--2--|
------------------------|

  Q    E  E  Q    E  E   
------------------------|
------------------------|
--5----L--5--0----0--0--|
------------------------|

  Q    E  E  Q    E  E   
------------------------|
------------------------|
------------------------|
--3----L--3--3----3--3--|

  Q    E  E  Q    E  E   
------------------------|
------------------------|
--2----L--2--2----2--2--|
------------------------|

  Q    E  E  Q    E  E   
------------------------|
------------------------|
--2----L--2--2----2--2--|
------------------------|

  Q    E  E  Q    E  E   
------------------------|
------------------------|
--5----L--5--0----0--0--|
------------------------|

  Q    E  E  Q    E  E   
------------------------|
------------------------|
--2----L--2--2----2--2--|
------------------------|

  Q    E  E  Q    E  E   
------------------------|
------------------------|
--2----L--2--2----2--2--|
------------------------|

  Q    E  E  Q    E  E   
------------------------|
------------------------|
------------------------|
--3----L--3--3----3--3--|

  Q    E  E  Q    E  E   
------------------------|
------------------------|
--2----L--2--2----2--2--|
------------------------|

  Q    E  E  Q    E  E   
------------------------|
------------------------|
------------------------|
--3----L--3--3----3--3--|

  Q    E  E  Q    E  E   
------------------------|
------------------------|
--2----L--2--2----2--2--|
------------------------|

  Q    E  E  Q    E  E   
------------------------|
------------------------|
--5----L--5--0----0--0--|
------------------------|

  Q    E  E  Q    E  E   
------------------------|
------------------------|
--2----L--2-------------|
-------------3----3--3--|

  Q    E  E  Q    E  E   
------------------------|
------------------------|
--5----L--5--0----0--0--|
------------------------|

  E  E  E  E  E  E  E  E   
--------------------------|
--------------------------|
--2--2--2--2--2--2--2--2--|
--------------------------|

  E  E  E  E  E  E  E  E   
--------------------------|
--------------------------|
--2--2--2--2--2--1--0-----|
-----------------------4--|

    E  E  E  E  E  E  E  E   
|---------------------------|
|*--------------------------|
|*--------------------------|
|---3--3--3--3--L--3--3--3--|

  E  E  E  E  E  E  E  E   
--------------------------|
--------------------------|
--0--0--0--0--L--0--0--0--|
--------------------------|

  E  E  E  E  E  E  E  E   
--------------------------|
--------------------------|
--2--2--2--2--L--2--2--2--|
--------------------------|

  E  E  E  E  E  E  E  E   5x
---------------------------||
--------------------------*||
--2--2--2--2--L--2--2--2--*||
---------------------------||

  E  E  E  E  E  E  E  E   
--------------------------|
--------------------------|
--------------------------|
--3--3--3--3--L--3--3--3--|

  E  E  E  E  E  E  E  E   
--------------------------|
--------------------------|
--0--0--0--0--L--0--0--0--|
--------------------------|

  Q    E  E  Q    E  E   
------------------------|
------------------------|
--2----L--L--L----L--2--|
------------------------|

  Q    E  E  Q    E  E   
------------------------|
------------------------|
--2----L--L--L----L--2--|
------------------------|

  Q    H.             
--------------------||
--------------------||
--5-----------------||
-------7------------||

Duration Legend
---------------
W - whole
H - half
Q - quarter
E - 8th
S - 16th
T - 32nd
X - 64th
. - note dotted
|-n-|  - n-tuplets

Tablature Legend
----------------
L - tied note
x - dead note
g - grace note
(n) - ghost note
> - accentuded note
NH - natural harmonic
AH - artificial harmonic
TH - tapped harmonic
SH - semi harmonic
PH - pitch harmonic
h - hammer on
p - pull off
b - bend
br - bendRelease
pb - preBend
pbr - preBendRelease
brb - bendReleaseBend
\n/ - tremolo bar dip
\n - tremolo bar dive
-/n - tremolo bar Release up
/n\ - tremolo bar inverted dip
/n - tremolo bar return
-\n - tremolo bar Release down
S - shift slide
s - legato slide
/ -  slide into from below or out of upwards
\ -  slide into from above or out of downwards
~ - vibrato
W - wide vibrato
tr - trill
TP - tremolo picking
T - tapping
S - slap
P - pop
< - fade in
^ - brush up
v - brush down
Composição de Cheetah Chrome / Peter Laughner
Colaboração e revisão:
  • Vagner Caetano
1.585 exibições

0 comentários

Mostrar mais comentários

Conseguiu tocar?

0 Tocaram 0 Ainda não

Grave um vídeo tocando Ain't It Fun e mande pra gente!

00:00 / 00:00
outros vídeos desta música
repetir qualidade Automático
Outros vídeos desta música
00:00 / 00:00
Automático

Cifra Club Pro

Aproveite o Cifra Club com benefícios exclusivos e sem anúncios
7 dias grátis
Cifra Club Pro
Aproveite o Cifra Club com benefícios exclusivos e sem anúncios
7 dias grátis
OK