Cifra Club

Aprenda

Paradise City

Guns N' Roses

Cifra: Versao-original (violão e guitarra)
Quer fazer aulas de música com a gente? Responda essas perguntas
e nos ajude nesse projeto! →
tom: B (forma dos acordes no tom de C) Afinação: Eb Ab Db Gb Bb Eb
Paradise city
  G                         C
|-3---3-----3-----3-------|---------3-----3-----3-------|
|-0-----0-----0-----0---0-|-1---------1-----1-----1---1-|
|-0-------0-----0-----0---|-0-----------0-----0-----0---|
|-0-----------------------|-0h2---2---------------------|
|-2-----------------------|-----3-----------------------|
|-3-----------------------|-----------------------------|

    Fadd9           C                 G
|--------3----------------3-------|-3-3----3-------------------|
|--1---1---1---1--1-----1---1---0-|-0--0-----0-----0---0-------|
|--0h2-------2----0-----------0---|-0----0-----0h2---0------0--|
|--0h3------------0h2-------------|-0--------------------0h2---|
|---------------------3-----------|-2--------------------------|
|---------------------------------|-3--------------------------|

  Rhy. Fig. 2:
|----------------------|------------------------------| 2x
|----------------------|------------------------------| toque abafando 2x as cordas dos acordes sinta-se livre
|-------------------5--|------------5-----------------| pra fazer mudanças ou variações
|--5----------------5--|-3----------5-------5---------|
|--5----------------3--|-3----------3-------5---------|
|--3-------------------|-1------------------3---------|

    Riff B
|--------------------------------------------|2x
|----------------------15--------------------|
|-------12-12--------------14fb-14fbr--12----|
|-12h14---------14-12------------------------|
|--------------------------------------------|
|--------------------------------------------|
  Riff B-1
|--------------------------------------------|
|-13fb-----13fb-----13-----------------------|
|--------------------------14br---12---14br~~|
|--------------------------------------------|
|--------------------------------------------|
|--------------------------------------------|

|--------------------------------------------|2x
|----------------------15--------------------|
|-------12-12--------------14fb-14fbr--12----|
|-12h14---------14-12------------------------|
|--------------------------------------------|
|--------------------------------------------|

   Riff B-2
|-----------------13----------------------------------------------|
|-13b-------13b---------13r--------12-----12br-br-br-br~~~~-------|
|-----------------------------------------------------------------|
|-----------------------------------------------------------------|
|-----------------------------------------------------------------|
|-----------------------------------------------------------------|

E|---------------------------------------------------------------- 3x
B|----------------------------------------------------------------
G|----------------------------------------------------------------
D|----------------------------------------------------------------
A|-----------------------------1~------------------------3--1~~---
E|3--1--2--3--1--2--1--3--1--3----3--1--2--3--1--2--3--1----------

E|----------------------------------------------------------------
B|----------------------------------------------------------------
G|----------------------------------------------------------------
D|----------------------------------------------------------------
A|--------1--3--3b5r3--1------------------------------------------
E|3--1--2-----------------3~~~------------------------------------

E|---------------------------------------------------------------- 3x
B|----------------------------------------------------------------
G|----------------------------------------------------------------
D|----------------------------------------------------------------
A|-----------------------------1~------------------------3--1~~---
E|3--1--2--3--1--2--1--3--1--3----3--1--2--3--1--2--3--1----------

E|----------------------------------------------------------------
B|----------------------------------------------------------------
G|----------------------------------------------------------------
D|----------------------------------------------------------------
A|--------1--3--3b5r3--1------------------------------------------
E|3--1--2-----------------3~~~------------------------------------

E|---------------------------------------------------------------- 3x
B|----------------------------------------------------------------
G|----------------------------------------------------------------
D|----------------------------------------------------------------
A|-----------------------------1~------------------------3--1~~---
E|3--1--2--3--1--2--1--3--1--3----3--1--2--3--1--2--3--1----------

E|----------------------------------------------------------------
B|----------------------------------------------------------------
G|----------------------------------------------------------------
D|----------------------------------------------------------------
A|--------1--3--3b5r3--1------------------------------------------
E|3--1--2-----------------3~~~------------------------------------

E|---------------------------------------------------------------- 3x
B|----------------------------------------------------------------
G|----------------------------------------------------------------
D|----------------------------------------------------------------
A|-----------------------------1~------------------------3--1~~---
E|3--1--2--3--1--2--1--3--1--3----3--1--2--3--1--2--3--1----------

E|----------------------------------------------------------------
B|----------------------------------------------------------------
G|----------------------------------------------------------------
D|----------------------------------------------------------------
A|--------1--3--3b5r3--1------------------------------------------
E|3--1--2-----------------3~~~------------------------------------





SOLO 1

E|------------------|----------------|-------------6-------|
B|------------------|----------------|------3-6--6---------|
G|----------3-------|-5B7--3-5b7r5-3-|-5b7-----------5b7r--|
D|-3b5-5-5----5p3---|--------5-------|---------------------|
A|----------------5-|----------------|---------------------|
E|-----------------------------------|---------------------|

E|-----3------------|------5-8----------------------|
B|-------6/8--8-----|-8b10-----8pb10-5-8------------|
G|-3h4--------------|--------------------7/9r7-5----|
D|------------------|----------------------------7--|
A|------------------|-------------------------------|
E|------------------|-------------------------------|

E|--------------------------------|------3-----------3-------3----|
B|--------------------------------|-5b6----3---5b6-----3-5b6--3-5-|
G|-7-5----------------------------|-5b6--------5b6-------5b6----5-|
D|-----7-5------------------------|-------------------------------|
A|---------7-6-5-3-5b---3----5b-3-|-------------------------------|
E|------------------------5-------|-------------------------------|

E|---------------------------------------------------------------- 3x
B|----------------------------------------------------------------
G|----------------------------------------------------------------
D|----------------------------------------------------------------
A|-----------------------------1~------------------------3--1~~---
E|3--1--2--3--1--2--1--3--1--3----3--1--2--3--1--2--3--1----------

E|----------------------------------------------------------------
B|----------------------------------------------------------------
G|----------------------------------------------------------------
D|----------------------------------------------------------------
A|--------1--3--3b5r3--1------------------------------------------
E|3--1--2-----------------3~~~------------------------------------

E|---------------------------------------------------------------- 3x
B|----------------------------------------------------------------
G|----------------------------------------------------------------
D|----------------------------------------------------------------
A|-----------------------------1~------------------------3--1~~---
E|3--1--2--3--1--2--1--3--1--3----3--1--2--3--1--2--3--1----------

E|----------------------------------------------------------------
B|----------------------------------------------------------------
G|----------------------------------------------------------------
D|----------------------------------------------------------------
A|--------1--3--3b5r3--1------------------------------------------
E|3--1--2-----------------3~~~------------------------------------

E|----------------------------------------------------------------
B|----------------------------------------------------------------
G|---3-----------------------5------------------------------------
D|---3-----------------------5------------------------------------
A|---1-----------------------3------------------------------------
E|----------------------------------------------------------------

E|----------------------------------------------------------------
B|----------------------------------------------------------------
G|----------------------------------------------------------------
D|----------------------------------------------------------------
A|-----------------------------1~------------------------3--1~~---
E|3--1--2--3--1--2--1--3--1--3----3--1--2--3--1--2--3--1----------

E|----------------------------------------------------------------|
B|----------------------------------------------------------------
G|----------------------------------------------------------------
D|----------------------------------------------------------------
A|-3b5--1--3b5--1-------------------------------------------------
E|----------------1--3~~~-----------------------------------------

E|----------------------|------------------------------| 2x
B|----------------------|------------------------------|
G|-------------------5--|------------5-----------------|
D|--5----------------5--|-3----------5-------5\--------|
A|--5----------------3--|-3----------3-------5\--------|
E|--3-------------------|-1------------------3\--------|

E|--------10---------10-----|-------8-----------8-|4x e depois da 2x vc faz um slide da casa
B|--------------------------|---------------------|9/11 na primeira parte e na segunda 7/9
G|-10h11------11-9-10-------|-8h9-------10--8--9--|obs: o slide é nas 3 primeiras cordas

E|---------------------------------|-----------------------------------------|
B|---------------------------------|-----------------------------------------|
G|---------------------------------|----------------------------------10--8~-|
D|------------------------------8~-|-10--8--9--10--8--9--10--8---10--8-------|
A|10--8--9--10--8--9--10--8--10----|-----------------------------------------|
E|---------------------------------|-----------------------------------------|

E|--------------------------|
B|--------------------------|
G|--------------------------|
D|------------10--8--9--10--|
A|8--6--7--8----------------|
E|--------------------------|

E|---------------------------------|-----------------------------------------|
B|---------------------------------|-----------------------------------------|
G|---------------------------------|----------------------------------10--8~-|
D|------------------------------8~-|-10--8--9--10--8--9--10--8---10--8-------|
A|10--8--9--10--8--9--10--8--10----|-----------------------------------------|
E|---------------------------------|-----------------------------------------|

E|--------------------------------------------------------------------|
B|--------------------------------------------------------------------|
G|--------------------------------------------------------------------|
D|----------------10--8--9--10---------------8----8----8--------------|
A|8--6--7--8--------------------10--8--9--10---10---10---10--10--9--8~|
E|--------------------------------------------------------------------|

E|--------------------------------------------|2x
B|----------------------15--------------------|
G|-------12-12--------------14fb-14fbr--12----|
D|-12h14---------14-12------------------------|
A|--------------------------------------------|
E|--------------------------------------------|
  Riff B-1
E|----------------------------------------------------------------|
B|-13fb-----13fb-----13-------------------15-----15----15------15-|
G|--------------------------14br---12-14b----14b----14b----14b----|
D|----------------------------------------------------------------|
A|----------------------------------------------------------------|
E|----------------------------------------------------------------|

E|--------------------------------------------|2x
B|----------------------15--------------------|
G|-------12-12--------------14fb-14fbr--12----|
D|-12h14---------14-12------------------------|
A|--------------------------------------------|
E|--------------------------------------------|
  Riff B-1
E|----------------------------------------19-------17---------------------------------|
B|-13fb-----13fb-----13---11----16----19b----rb19--18---18----------------------------|
G|-------------------------------------------------17---17---16b17r16b17r16~~~--------|
D|-------------------------------------------------19---------------------------------|
A|------------------------------------------------------------------------------------|
E|------------------------------------------------------------------------------------|

Solo final...





(5:14)

E|----------------------------------------------------------
B|-----------15b----15b-15b-15b-15b---15b-15-14-13-----13---
G|-------12-----------------------------------------15------
D|---/14----------------------------------------------------
A|----------------------------------------------------------
E|----------------------------------------------------------

E|----------------------------------------------------------
B|---15-13h15p13/11-13-11h13p11/10-11-10h11p10----10h11p10--
G|---------------------------------------------12-----------
D|----------------------------------------------------------
A|----------------------------------------------------------
E|----------------------------------------------------------

E|-------------10----15-----15------------15----------------
B|------10-13b----------18b----18p15-18b-----18p15-18b------
G|---12-----------------------------------------------------
D|----------------------------------------------------------
A|----------------------------------------------------------
E|----------------------------------------------------------

E|---15------------15-----------15------------15-------18b~-
B|------18p15-18b-----18p15--------18p15-18b-----18p15------
G|--------------------------17b-----------------------------
D|----------------------------------------------------------
A|----------------------------------------------------------
E|----------------------------------------------------------

E|---3-----3-----3-----3-----3-----3-----3-----3-----3------
B|-----6p3---6p3---6p3---6p3---6p3---6p3---6p3---6p3---6p3--
G|----------------------------------------------------------
D|----------------------------------------------------------
A|----------------------------------------------------------
E|----------------------------------------------------------

     I'm not sure of that either, not very clear...

E|------5-6-5h6p5-------------------------------------------
B|----8-----------8p6-6h8p6p5h6---------3----3--------------
G|-------------------------------7p5-5b---5b----5br-p3h5-3--
D|----------------------------------------------------------

E|----------------------------------------------------------
B|----------------------------------------------------------
G|-------3--------------------------------------------------
D|---3h5---5---5p3-------3----------------------------------
A|-----------------5-3h5---5p3p1-3~--------1-3-1-3p1---1----
E|-----------------------------------1b--3-----------3------

E|------------------------------------------------3------3--
B|-------------------3~--------3~-------3~------3------3----
G|-------------------3~--------3~-------3~---5b-----5b------
D|-------3---5p3---------5p3h5----5p3h5---------------------
A|---3/5---5-----5------------------------------------------
E|----------------------------------------------------------

E|--------3------3------3------3----------------------------
B|------3------3------3------3----5b~-r5~---5~---5b---------
G|---5b-----5b-----5b-----5b------5b~-r5~---5~---5b---------
D|----------------------------------------------------------
A|----------------------------------------------------------
E|----------------------------------------------------------


(5:43)

E|------3-3---3-6p3---8b-p6---8p6-------10b-10-9-8----8-9-10
B|---6b-----6-------6-------8-----8p6--------------10-------
G|------------------------------------(7)-------------------
D|----------------------------------------------------------
A|----------------------------------------------------------
E|----------------------------------------------------------

E|--------------------------------------10------------------
B|---10b-8~--10-8~---10-8~--10-8~--10b------10r-8~----10-8~-
G|-------------------------------------------------9--------
D|----------------------------------------------------------
A|----------------------------------------------------------
E|----------------------------------------------------------

E|----------------------------------------------------------
B|---10-8~---10-8~---8h10h11-8h10h11p10p8----10----8~-------
G|----------------------------------------10----10----------
D|----------------------------------------------------------
A|----------------------------------------------------------
E|----------------------------------------------------------

E|---------------------------10h12----10h12h13-12h13h15-----
B|------10h11p10----10h11h13-------13-----------------------
G|---12----------12-----------------------------------------
D|----------------------------------------------------------
A|----------------------------------------------------------
E|----------------------------------------------------------

E|---13h15h17-15h17h18-----15-----15------------------------
B|---------------------18b----18b-----15h18p15----15h18p15--
G|---------------------------------------------17-----------

E|-------------------------------------18~------------------
B|--------15h18p15------15h18p15-------17~--17-15~----------
G|----17------------17------------17--------17-15~----------
D|----------------------------------------------------------

E|---------------------12h13h15p13p12----13p12-------12-----
B|------------12h13h15----------------15-------15p13--------
G|---12h14h15-----------------------------------------------
D|----------------------------------------------------------
A|----------------------------------------------------------
E|----------------------------------------------------------

E|----------------------------------------------------------
B|---15p13p12-----15p13p12-----14p13p12-----14p13p12--------
G|-------------------------14-----------14------------------
D|----------------------------------------------------------
A|----------------------------------------------------------
E|----------------------------------------------------------

E|----------------------------------------------------------
B|-----------12p10------------------------------------------
G|----14p12--------12p10-12p10p9-12p10p9----10p9------------
D|---------------------------------------12------12-10------
A|----------------------------------------------------------
E|----------------------------------------------------------

E|----------------------------------------------------------
B|----------------------------------------------------------
G|----------------------------------------------------------
D|------10b~----10b~------10b~-10b~--------------15h16h17---
A|---13------13-------13---------------15h16h17-------------
E|----------------------------------------------------------

E|----------------------------------------------------------
B|---------------------------------------15h16h17-16h17h18--
G|------------15h16h17----------15h16h17--------------------
D|---15h16h17----------15h16h17-----------------------------
A|----------------------------------------------------------
E|----------------------------------------------------------

E|--15----15------------------------------------------------
B|---18b~----18b~-------------------------------------------
G|----------------------------------------------------------
D|----------------------------------------------------------
A|----------------------------------------------------------
E|------------------1-2-3-1-2-3-1-2-3-1-2-3-1-2-3-1-2-3-1-2-

E|----------------------------------------------------------
B|----------------------------------------------------------
G|----------------------------------------------------------
D|-----------------------3-4-5-3-4-5-3-4-5-3-4-5-3-4-5------
A|----------------------------------------------------------
E|--3-1-2-3-1-2-3-1-2-3-------------------------------------



                               (6:16)

E|------------------------------------------12--------------
B|---------------------------------------15----15p12--------
G|---3b~--5-3-5b~--5p3-5-3~-----12~--14b-------------14r----
D|----------------------------------------------------------
A|----------------------------------------------------------
E|----------------------------------------------------------

E|----------------------------------------------------------
B|---------------------------------------------------12-15--
G|---12-----14----12~---12-14-14p12----12-12--14-14b--------
D|-------14----14-------------------14----------------------
A|----------------------------------------------------------
E|----------------------------------------------------------

E|----------------------------------------------------------
B|------------------------13-15-----13-15-----13-15---------
G|---14r----14----14-14b--------14b-------14b-------14b-----
D|-------14----14-------------------------------------------
A|----------------------------------------------------------
E|----------------------------------------------------------

E|----------------------------------------------------------
B|---13h15-----13h15-----13h15-----13h15------13h15---------
G|---------14b-------14b-------14b-------14b--------14b-----
D|----------------------------------------------------------
A|----------------------------------------------------------
E|----------------------------------------------------------

E|----------------------------------------------------------
B|---13h15p13-------13h15p13---15b-13h15p13p12----12h13p12--
G|-------------14b-----------------------------14-----------
D|----------------------------------------------------------
A|----------------------------------------------------------
E|----------------------------------------------------------

E|----------------------------------------------------------
B|-------12-------------------------------------------------
G|---14b----14b-p12----14p12--------------------------------
D|------------------14-------12h14-12b~---------------------
A|----------------------------------------------------------
E|----------------------------------------------------------

E|----------------------------------------------------------
B|----------------------------------------------------------
G|-5b-5b-5---p3-5p3---5b(5)p3---5---3b---3b-----------------
D|------------------5---------5---5----5----5-3-------------
A|----------------------------------------------5-4-3-1-3---
E|----------------------------------------------------------
Composição de Axl Rose / Duff McKagan / Izzy Stradlin / Slash / Steven Adler
Colaboração e revisão:
  • cesar vinicius
  • Junior coosta'
  • Clarke Hudson
29.459 exibições
  • Simplificar cifra
    • ½ Tom
    • A
    • Bb
    • B
    • C
    • Db
    • D
    • Eb
    • E
    • F
    • F#
    • G
    • Ab
  • Adicionar à lista

    0 comentários

    Ver todos os comentários

    Conseguiu tocar?

    6 Tocaram 0 Ainda não

    Grave um vídeo tocando Paradise City e nos envie!

    00:00 / 00:00
    Outros vídeos desta música
    Repetir Qualidade Automático
    Outros vídeos desta música
    00:00 / 00:00
    Automático

    Cifra Club Pro

    Aproveite o Cifra Club com benefícios exclusivos e sem anúncios
    Cifra Club Pro
    Aproveite o Cifra Club com benefícios exclusivos e sem anúncios
    OK