Cifra Club

Aprenda

My Last Sunrise

Iced Earth

Cifra: Principal (violão e guitarra)
tom: A#
Tuning: Eb

Riff 1 (acoustic)
eb|---------7----------------7--------|
Bb|-------8---8----------------8------|
Gb|-----9-------9---------9------9----|
Db|---9-----------9-----9----------9\-|
Ab|-7-----------------7---------------|
Eb|-----------------------------------|
   "The lamb..."
eb|---------6----------------6---|
Bb|-------7---7----------------7-|
Gb|-----8-------8---------8------|
Db|---8-----------8-----8--------|
Ab|-6-----------------6----------|
Eb|------------------------------|
   "...they don't exist..."
 
Riff 2 (distortion)
eb|------------------------------|
Bb|------------------------------|
Gb|------------------------------|
Db|-2-------5-4---2--------5-4---|
Ab|-2-------5-4---2--------5-4---|
Eb|----0-0------0------0-0-----0-|
       * *      *      * *     *   
eb|--------------------------------|
Bb|--------------------------------|
Gb|--------------------------------|
Db|-1--------2-1--1--------2-1-----|
Ab|-1--1--11-2-1--1--1--11-2-1-----|
Eb|----------------------------0-0-|
       *  **         *  **     * * 
   "Everything is burning..."

Play Riff 1    "The grail's in pieces..."
Play Riff 2    "Don't wait for me..."

Riff 3                     x2                        x2
eb|-------------------------|-------------------------|
Bb|-------------------------|-------------------------|
Gb|-------------------------|-------------------------|
Db|-------------------------|-------8-----------9-9-9-|
Ab|-------2-----------------|-6-666-6-6-6-6-666-7-7-7-|
Eb|-0-000-0-0-0-3-2-0-3-2-0-|-------------------------|
    * ***   * * * * * * * *   * ***   * * * ***
    "Golgotha..."

Riff 4
Guitar 1
eb|--------------------------------|
Bb|--------------------------------|
Gb|--------------------------------|
Db|-9-9--99-8-99--9-9-99-8-99-8-99-|
Ab|-7-7--77-6-77--7-7-77-6-77-6-77-|
Eb|--------------------------------|
    * *  ** * **  * * ** * ** * **
eb|---------------------------------|
Bb|---------------------------------|
Gb|---------------------------------|
Db|-8-8--88-7-88--8-8--88-7-88-7-88-|
Ab|-6-6--66-5-66--6-6--66-5-66-5-66-|
Eb|---------------------------------|
    * *  ** * **  * *  ** * ** * **

Guitar 2 (reverb or some effect)
eb|------------------------------------------|
Bb|----12--10--10-12-13-----12--10--13-12-10-|
Gb|-9--------------------9-------------------|
Db|------------------------------------------|
Ab|------------------------------------------|
Eb|------------------------------------------|

eb|------------------------------------------|
Bb|----11---9---9-11-12-----11---9--12-11--9-|
Gb|-8--------------------8-------------------|
Db|------------------------------------------|
Ab|------------------------------------------|
Eb|------------------------------------------|

Play Riff 3   "Suffer, grief..."
Play Riff 4   

Riff 5
eb|--------------------------------|
Bb|-------------6--5--4----------4-|
Gb|-------------5--4--3----------3-|
Db|-----5--4----3--2--1---0-1-3--1-|
Ab|-2---3--2-----------------------|
Eb|-0------------------------------|
                          * * * 
   "Can't you see..."

Riff 6
Guitar 1
eb|-------------------------------------------------|
Bb|-------------------------------------------------|
Gb|-------------------------------------------------|
Db|-------------------------------------------------|
Ab|-------------------------------------8-888-7-777-|
Eb|-0-000-0-000-0-000-8-888-7-777-7-777-------------|
    * *** * *** * *** * *** * *** * *** * *** * ***  
   "Hear no evil..."
                           x2
eb|-------------------------|
Bb|-------------------------|
Gb|-------------------------|
Db|-------------------------|
Ab|-6-666-6-666-6-666-5-6-8-|
Eb|-------------------------|
    * *** * *** * *** * * * 

Guitar 2
eb|-12---12---12---12---13---12---11---12----|
Bb|---12---12---12---12---12---12---12---12--|
Gb|-----9----9----9----9----9----9----9----9-|
Db|------------------------------------------|
Ab|------------------------------------------|
Eb|------------------------------------------|

eb|-11--11--11--11--12--11--10--11----|
Bb|---11--11--11--11--11--11--11--11--|
Gb|-----8---8---8---8---8---8---8---8-|
Db|-----------------------------------|
Ab|-----------------------------------|
Eb|-----------------------------------|

notation:
^   =  bend [ ^ = half, ^^ = whole, etc. ]
^r  =  bend and release
x   =  mute with fret-hand
*   =  mute with palm-hand
X\\ =  pick slide
h   =  hammer-on
p   =  pull-off
~   =  vibrato
t   =  tap-on
/   =  slide up
\   =  slide down
h.  =  harmonics
ah  =  artificial harmonic
(9) =  ghost note
tm  =  trem picking
tr  =  trill
Colaboração e revisão:
  • Taino Vieira
358 exibições
    • ½ Tom
    • A
    • Bb
    • B
    • C
    • Db
    • D
    • Eb
    • E
    • F
    • F#
    • G
    • Ab
  • Adicionar à lista

    0 comentários

    Ver todos os comentários

    Conseguiu tocar?

    0 Tocaram 0 Ainda não

    Grave um vídeo tocando My Last Sunrise e nos envie!

    00:00 / 00:00
    outros vídeos desta música
    repetir qualidade Automático
    Outros vídeos desta música
    00:00 / 00:00
    Automático

    Cifra Club Pro

    Aproveite o Cifra Club com benefícios exclusivos e sem anúncios
    Cifra Club Pro
    Aproveite o Cifra Club com benefícios exclusivos e sem anúncios
    OK