Cifra Club

Pardon Me

Incubus

Tab de baixo: Principal
exibições 4.040
Introdução:
			Pardon me while I burst.....
G|--------------------------------------------------------------------------------------------
D|--------------------------------------------------------------------------------------------
A|----------4-----4---------4-----4----------4-4-4-4-4-4-----------------4-4-4-4-4-4----------
E|-------------5----5/12-------5----5/12------------------5-5-5-5-5-5-------------------------
B|--------------------------------------------------------------------------------------------

G|--------------------------------------------------------------------------------------------
D|--------------------------------------------------------------------------------------------
A|--------------------------------------------------------------------------------------------
E|--5-5-5------------------------5-5-5-5-5-5-5----------------5-5-5-5-------------------------
B|---------5-5-5--2-2-2-2-2-2------------------2-2-2-2-2-2-----------5-5-5--------------------

G|-------------------------------------------------------------------------------------------
D|-------------------------------------------------------------------------------------------
A|-----------------------------------------------7-7-7-7-------------------------------------
E|------------------5-5-5-5-5-5-5------------------------7-7--5-5----------------------------
B|--2-2-2-2-2-2--------------------2-2-2-2---------------------------------------------------

     A decade ago, I never thought I would be..........

G|-------------------------------------------------------------------------------------------
D|---------------------------------------------------------------------7---------------------
A|-----------------------------------4-4--------------5-5-5--------0-5----5-0----------------
E|----------4-4-------11-11-11-11--------7-7-------------------------------------------------
B|-------------5-5-------------------------------7-7-----------3-3---------------------------
                                                                                        To me.........
G|--------------------------------------------------------------------------------------------
D|--------------------------------------------------------------------------------------------
A|--4-4---------------------------------11-14-------------------------------------------------
E|----------4-4--12-12-12-12-12-12-------------------7-7-5-5-5-5-5-5-5-5-5-5-5-5---5-5-5------
B|---------------------------------------------16-16------------------------------------------


Refrão:

         So Pardon me while I burst into flames.
G|-------------------------------------------------------------------------------------------
D|-------------------------------------------------------------------------------------------
A|-------------------------------------------------------------------------------------------
E|------------------7-7-7-7-5-5-5-5--5-5-5-5--0-2-0-0-0-2-0-0-0------------------------------
B|--2-2-2-2-2-2--------------------------------------------------------2-2-2-2-2-2-----------

G|-------------------------------------------------------------------------------------------
D|-------------------------------------------------------------------------------------------
A|--------------------------------------------------------------------------------2-2-2-2----
E|--7-7-7-7-5-5-5-5--5-5-5-5-0-2-0-0-0-2-0-0-0--------------------------5-5-5-5--------------
B|-------------------------------------------------------2-2-2-2-2-2-------------------------

G|-------------------------------------------------------------------------------------------
D|-------2-4-2-1-----------------------------------------------------------------------------
A|--2-2-----------0-2-4-4-4-4-4-4------------------------------------------------------------
E|--------------------------------------5-5-5-5--7-7-7-7-7-7-7-7-0-2-0-0-0-2-0-0-0-----------
B|-------------------------------------------------------------------------------------------

G|-------------------------------------------------------------------------------------------
D|-------------------------------------------------------------------------------------------
A|-------------------------------------------------------------------------------------------
E|---4-4--------4-4--------------------------------------------------------------------------
B|---------5-5--------5-5--------------------------------------------------------------------

      Not, two days ago I was having a look in a book.......
G|--------------------------------------------------------------------------------------------
D|--------------------------------------------------------------------7----------------------
A|-----------------------------4-4------------------5-5-5--------0-5----5-0-----------------
E|-----4-4-------11-11-11-11--------7-7----------------------------------------------------
B|--------5-5-------------------------------7-7------------3-3-------------------------------

G|--------------------------------------------------------------------------------------------
D|--------------------------------------------------------------------------------------------
A|--4-4---------------------------------11-14-------------------------------------------------
E|-------------4-4--12-12-12-12-12-12-------------------7-7-5-5-5-5-5-5-5-5-5-5-5-5-----------
B|------------------------------------------------16-16---------------------------------------

Refrão:

         So Pardon me while I burst into flames. 
G|-------------------------------------------------------------------------------------------
D|-------------------------------------------------------------------------------------------
A|-------------------------------------------------------------------------------------------
E|------------------7-7-7-7-5-5-5-5--5-5-5-5--0-2-0-0-0-2-0-0-0------------------------------
B|--2-2-2-2-2-2--------------------------------------------------------2-2-2-2-2-2-----------

G|-------------------------------------------------------------------------------------------
D|-------------------------------------------------------------------------------------------
A|--------------------------------------------------------------------------------2-2-2-2----
E|--7-7-7-7-5-5-5-5--5-5-5-5-0-2-0-0-0-2-0-0-0-------------------------5-5-5-5---------------
B|-------------------------------------------------------2-2-2-2-2-2-------------------------

G|-------------------------------------------------------------------------------------------
D|-------2-4-2-1-----------------------------------------------------------------------------
A|--2-2-----------0-2-4-4-4-4-4-4------------------------------------------------------------
E|--------------------------------------5-5-5-5--7-7-7-7-7-7-7-7-0-2-0-0-0-2-0-0-0-----------
B|-------------------------------------------------------------------------------------------

         Never be the same...

G|------------------------------------------------------------------------------------------
D|------------------------------------------------------------------------------------------
A|------------------------------------------------------------------------------------------
E|------------------------------------------------------------------------------------------
B|-------------------------------2-2-2-2----------------------------------------------------
 

      So pardon me while I burst into flames
G|------------------------------------------------------------------------------------------
D|------------------------------------------------------------------------------------------
A|--4----4----------4-4-4-4-4-4-----------------4-4-4-4-4-4---------------------------------
E|-----5----5/12------------------5-5-5-5-5-5-----------------5-----------------------------
B|------------------------------------------------------------------------------------------




Refrão:
         
      So Pardon me while I burst into flames. 
G|------------------------------------------------------------------------------------------
D|------------------------------------------------------------------------------------------
A|------------------------------------------------------------------------------------------
E|------------------7-7-7-7-5-5-5-5--5-5-5-5--0-2-0-0-0-2-0-0-0-----------------------------
B|--2-2-2-2-2-2--------------------------------------------------------2-2-2-2-2-2----------

G|------------------------------------------------------------------------------------------
D|------------------------------------------------------------------------------------------
A|--------------------------------------------------------------------------------2-2-2-2---
E|--7-7-7-7-5-5-5-5--5-5-5-5-0-2-0-0-0-2-0-0-0----------------5-5-5-5-----------------------
B|-------------------------------------------------------2-2-2-2-2-2------------------------

G|------------------------------------------------------------------------------------------
D|-------2-4-2-1----------------------------------------------------------------------------
A|--2-2-----------0-2-4-4-4-4-4-4-----------------------------------------------------------
E|--------------------------------------5-5-5-5--7-7-7-7-7-7-7-7-0-2-0-0-0-2-0-0-0----------
B|------------------------------------------------------------------------------------------
      Pardon me, never be the same.                               Yeah!
G|------------------------------------------------------------------------------------------
D|------------------------------------------------------------------------------------------
A|------------------------------------------------------------------------------------------
E|------------------5-5-5-5-5-5-5-----------------5-5-5-5-----------------------------------
B|---2-2-2-2-2-2-------------------2-2-2-2-2-2------------5--2-2-2-2-2-2--------------------

G|------------------------------------------------------------------------------------------
D|------------------------------------------------------------------------------------------
A|----7-7-7-7-------------------------------------------------------------------------------
E|---------------7-7-5-5-----------------5-5-5-5--------------------------------------------
B|-------------------------2-2-2-2-2-2------------5-----------------------------------------

0 comentários

    mostrar mais comentários

    Conseguiu tocar?

    0tocaram0ainda não

    Grave um vídeo tocando Pardon Me e mande pra gente!

    00:00 / 00:00
    outros vídeos desta música
    repetirqualidadeautomática
    Outro vídeos desta música
      00:00 / 00:00
      automática
      OK