Cifra Club

My Little Girl

Jack Johnson

Cifra: Principal (violão e guitarra)
tom: D
             A7sus4  Bm(#5)
Hey, little girl
                B7sus4   Dadd9
You might not know this song
Bm7
   This is not the kind of song
      A
That you can sing along to
                 A7sus4  Bm(#5)
But hey, little girl
            B7sus4  Dadd9
Maybe some day
Bm7
   Least that's what all
          A
The good people will say

             G
Hey, little girl
                  Em
Look what you've done
                  Bm
You've gone and stole my heart
     A           G
And made it your own
         Bm
You've stole my heart
     A           G
And made it your own

             A7sus4  Bm(#5)
Hey, little girl
  B7sus         Dadd9
Black and white and right and wrong
Bm7
Only live inside a song
A
I will sing to you
            A7sus4   Bm(#5)
You don't ever have to feel lonely
          B7sus4         Dadd9
You will never lose any tears
 Bm7
You don't have to feel any sadness
  A
When you look back on the years
           G
How can I look you in the eyes,
     Em
And tell you such big lies?
  Bm                              A
The best I can do is try to show you
                     G
How to love with no fear
           Em
My little girl
                  Bm
You've gone and stole my heart
     A           G
And made it your own
         Bm
You've stole my heart
     A           G
And made it your own

[Solo]
                                                                   
E|--------------------------------------------------------|
B|----------------------------------------------------/10-|
G|-----x-7-x-9-x-7~-----x-7-x-9-x-11~-----x-7-x-9-x-7~----|
D|-7h9--------------7h9---------------7h9-----------------| 
A|--------------------------------------------------------|
E|--------------------------------------------------------|

E|--------------------------------------------------------|
B|--------------------------------------------------------|
G|--------------------------------------------------------|
D|-9-7---7------------------------------------------------|
A|-----9---9-7-5-7-9--7-5-7-2-/5~--9-7-5-7-2~/5~----------|
E|--------------------------------------------------------|
Composição de Jack Johnson
Colaboração e revisão:
  • Marcos Paulo
  • Gustavo Escott
  • Lizandra
62.981 exibições
    • ½ Tom
    • A
    • Bb
    • B
    • C
    • Db
    • D
    • Eb
    • E
    • F
    • F#
    • G
    • Ab
  • Adicionar à lista

    0 comentários

    Ver todos os comentários

    Conseguiu tocar?

    8 Tocaram 0 Ainda não

    Grave um vídeo tocando My Little Girl e nos envie!

    00:00 / 00:00
    Outros vídeos desta música
    Repetir Qualidade Automático
    Outros vídeos desta música
    00:00 / 00:00
    Automático

    Cifra Club Pro

    Aproveite o Cifra Club com benefícios exclusivos e sem anúncios
    Cifra Club Pro
    Aproveite o Cifra Club com benefícios exclusivos e sem anúncios
    OK