Cifra Club

Aprenda

The Days Have Turned

John Frusciante

Cifra: Principal (violão e guitarra)
tom: D
   Bm         A      Em
E|-------------------------------------------------------|
B|----3-3----------2-------------------------------------|
G|----4-4-4--------2------0------------------------------|
D|--4------4-----2--------2------------------------------|
A|-2-----------0--------2--------------------------------|
E|--------------------0----------------------------------|
       G        D         A       Bm         A           Bm
E|----3--------3-2---------------------------------------|
B|----3--------3-3------2------3------2-----2------3h5p3-|
G|------0----2----------2------4------2-----2------4-----|
D|--0------0----------2------4---4--------2------4-------|
A|------------------0------2--------0---0------2---------|
E|-3-----------------------------------------------------|

[Primeira Parte]

Bm                                A Em
The days have turned away from me
    Bm                     A     Em
The lights no longer shine on my head
    Bm                       A Em
And people turn away from me
Bm                         A    Em
No more do they look to me with respect

( G  D  A  Bm )
( G  D  A  Bm )

       G    D
Well I know now
     A         Bm
It's the first time
         G   D
That was fun now
     A         Bm
From life I've resigned
       G         D            A           Bm
When I feel I've got problems how wrong I am
     G       D       A       Bm
I'm awaiting life as another man

Don't crowd me

( G  D  A  Bm )
( G  D A )

[Segunda Parte]

Bm                             A Em
There's riddles in the shadows
Bm                          A   Em
They're thrown the way that I'd expect
    Bm                        A Em
And people never seem to know
Bm                         A      Em
What they least suspect is coming next
        G     D    A     Bm
Well it seems like times elasped
         G       D    A      Bm
And I've stabbed life in the back
    G             D    A  Bm
I'm searching for what it means
   G         D        A     Bm
To never be anything anything
      G    D
And I know now
     A         Bm
It's the first time
         G   D
That was fun now
     A         Bm
From life I've resigned
       G         D            A           Bm
When I feel I've got problems how wrong I am
    G        D       A       Bm
I'm awaiting life as another man
G   D   A  Bm
Hey now-ow-ow
Composição de John Frusciante
Colaboração e revisão:
  • Lucas Resende
  • Felipe Aleva
3.859 exibições
    • ½ Tom
    • A
    • Bb
    • B
    • C
    • Db
    • D
    • Eb
    • E
    • F
    • F#
    • G
    • Ab
  • Adicionar à lista

    0 comentários

    Ver todos os comentários
    00:00 / 00:00
    Outros vídeos desta música
    Repetir Qualidade Automático
    Outros vídeos desta música
    00:00 / 00:00
    Automático

    Cifra Club Pro

    Aproveite o Cifra Club com benefícios exclusivos e sem anúncios
    Cifra Club Pro
    Aproveite o Cifra Club com benefícios exclusivos e sem anúncios
    OK