Cifra Club

Amo Noite e Dia

Jorge e Mateus

Tab de baixo: Principal
(intro) (2x)
G|----------------------------------------------
D|----------------------------------------------
A|-4--4-4----------7--7-7-----------------------                    (2x)
E|---------5--5-5----------7--7-7---------------

(parte 1)
''Tem um pedaço do meu peito bem colado ao teu...''
G|----------------------------------------------
D|----------------------------------------------
A|-4--4-4---------------------------------------                    (2x)
E|---------5--5-5-------------------------------

''Teu jeito perigoso de me conquistar...''
G|----------------------------------------------
D|----------------------------------------------
A|-4--4-4----------7--7-7-----------------------                    
E|---------5--5-5----------7--7-7---------------

(parte 2)
''Tudo se perde se transforma se ninguém te ve...''
G|----------------------------------------------
D|----------------------------------------------
A|-4--4-4---------------------------------------                    (2x)
E|---------5--5-5-------------------------------

''O tempo ja não passa só anda pra trás...''
G|------------------------------------------------
D|------------------------------------------------
A|-4--4-4----------7--7-7-------------------------                    
E|---------5--5-5----------7--7-7--5--5-5---------

(ponte)
''Iê iê...''
G|------------------------------------------------
D|------------------------------------------------
A|------------------------------------------------                    
E|-7--7-7-----------------------------------------

(refrâo)
''Passo o dia, passo a noite to apaixonado...'
G|----------------------------------------------
D|----------------------------------------------
A|-4--4-4----------7--7-7-----------------------                    (2x)
E|---------5--5-5----------7--7-7---------------

(intro)   (1x)
(parte 1) (1x)
(parte 2) (1x)
(ponte)   (1x)
(refrão)  (2x)

(solo)    (2x)
G|----------------------------------------------
D|----------------------------------------------
A|-4--4-4----------7--7-7-----------------------                    (2x)
E|---------5--5-5----------7--7-7---------------

(ponte) (1x)

(refrão) (1x)

''Amo noite e diaaaaa , ahh ah a ahh...''
G|----------------------------------------------
D|----------------------------------------------
A|-4--4-4----------7--7-7-----------------------             
E|---------5--5-5----------7--7-7---------------

''Iê Iê...''
G|----------------------------------------------
D|----------------------------------------------
A|-3--------------------------------------------             
E|----------------------------------------------
exibições 21.468
Composição: Humberto Teixeira Colaboração e revisão:
  • Gustavo Rios

0 comentários

mostrar mais comentários
00:00 / 00:00
outros vídeos desta música
repetir qualidade Automático
Outros vídeos desta música
00:00 / 00:00
Automático
OK