Cifra Club

Joe's Head

Kings Of Leon

Tab de baixo: Principal
exibições 483
Tabbed By : Xcrimson_ghostX
e-mail: invisibleX*

Tuning: standard

intro
G|---------------9----------11-11--|
D|-------9/--11-----11--9----------|
A|--7------------------------------|
E|---------------------------------|

G|---------------9---------11--9------|
D|-------9/--11-----11--9---------11--|
A|--7---------------------------------|
E|------------------------------------|

G|---------------9----------11-11--|
D|-------9/--11-----11--9----------|
A|--7------------------------------|
E|---------------------------------|

G|---------------9----------11-11--|
D|-------9/--11-----11--9----------|
A|--7------------------------------|
E|---------------------------------|

verse
G|---------------9---------11-11--|
D|-------9/--11-----11--9---------|
A|--7-----------------------------|
E|--------------------------------|

G|---------------9---------11-11--|
D|-------9/--11-----11--9---------|
A|--7-----------------------------|
E|--------------------------------|

G|---------------9---------11--9------|
D|-------9/--11-----11--9---------11--|
A|--7---------------------------------|
E|------------------------------------|

G|---------------9---------11-11--|
D|-------9/--11-----11--9---------|
A|--7-----------------------------|
E|--------------------------------|

G|---------------9---------11--9------|
D|-------9/--11-----11--9---------11--|
A|--7---------------------------------|
E|------------------------------------|

G|---------------9----------11-11--|
D|-------9/--11-----11--9----------|
A|--7------------------------------|
E|---------------------------------|

prechorus
G|---------5--|
D|--7---------|
A|------------|
E|------------|

chorus
G|-----------------------------|
D|-----------------------------|
A|--7--7---7--7----------------|
E|----------------5--5---7--7--|

G|-----------------------------|
D|-----------------------------|
A|--7--7---7--7----------------|
E|----------------5--5---4--4--|

G|-----------------------------|
D|-----------------------------|
A|--7--7---7--7----------------|
E|----------------5--5---7--7--|

G|------------------------------------|
D|------------------------------------|
A|--7--7---7--7------------------2/7--|
E|----------------5--5---4--4---------|

outro
G|----------------------------------------------------|
D|----------------------------------------------------|
A|--7-7-7-7-7-7-7-7-----------------------------------|
E|------------------5-5-5-5-5-5-5-5--7-7-7-7-7-7-7-7--|

G|----------------------------------------------------|
D|----------------------------------------------------|
A|--7-7-7-7-7-7-7-7-----------------------------------|
E|------------------5-5-5-5-5-5-5-5--4-4-4-4-4-4-4-4--|

G|----------------------------------------------------|
D|----------------------------------------------------|
A|--7-7-7-7-7-7-7-7-----------------------------------|
E|------------------5-5-5-5-5-5-5-5--7-7-7-7-7-7-7-7--|

G|---------------------------------------------------------|
D|---------------------------------------------------------|
A|--7-7-7-7-7-7-7-7----------------------------------------|
E|------------------5-5-5-5-5-5-5-5--4-4-4-4-4-4-4-4----7--|


| /  slide up
| \  slide down
| h  hammer-on
| p  pull-off
| ~  vibrato
| +  harmonic
| x  Mute note
===============================================================================

0 comentários

    mostrar mais comentários

    Conseguiu tocar?

    0tocaram0ainda não

    Grave um vídeo tocando Joe's Head e mande pra gente!

    00:00 / 00:00
    outros vídeos desta música
    repetirqualidadeautomática
    Outro vídeos desta música
      00:00 / 00:00
      automática
      OK