Cifra Club

Mary

Kings Of Leon

Tab de baixo: Principal
exibições 530
Intro:
G|—13/16----13------------------------------------------
D|-------17---------------------------------------------
A|------------------------------------------------------
E—-----------------------------------------------------

Refrão:
G|-------------------------------------------------------------------------------------
D|-----666--------------666---------------111111--------------------131313-------------
A|--------999-111111-------999-11109------------141414-161616-------------161616-181818
E|--777--------------777------------121212--------------------141414-------------------

Refrão 1 - 2x:
“Mary, if you want to...”
G|------------------------------------------------------
D|------------------------------------------------------
A|------------------------------------------------------
E|--7-77-77-77-77-77-77-77-70-00-00-00-02-22-22-22------

Refrão 3:
“No I won't...”
G|-------------------------------------------------------------
D|-------------------------------------------------------------
A|-6-6666-6-6666-6-6666------9(12x)-6-6666-6-6666-6-6666-7(24x)
E|---------------------7(12x)----------------------------------

Refrão 4:
“your goodbye ha ha ha ha ha...”
G|—13/16---13------13/16---13------13/16---13-14(14x)-11/15(14x)
D|-------17--12-13-------17—-12-13-------17---------------------
A|--------------------------------------------------------------
E|—-------------------------------------------------------------

Refrão 5 - 2x:
“We'll go to the disco...”

G|------------------------------------------------------
D|------------------------------------------------------
A|------------------------------------------------------
E|—7(24x)-0(12x)-2(12x)---------------------------------

Refrão 3:
“No I won't...”
G|-------------------------------------------------------------
D|-------------------------------------------------------------
A|-6-6666-6-6666-6-6666------9(12x)-6-6666-6-6666-6-6666-7(24x)
E|---------------------7(12x)----------------------------------

Solo:
G|----------------------------------------------------------------
D|---7/9--7-9-----------------------------------------------------
A|-9-----9----7---------------------------------------------------
E|--------------7-77-77-77-77-77-77-77-70-00-00-00-02-22-22-22-(2x)

Refrão 3:
“No I won't...”
G|-------------------------------------------------------------
D|-------------------------------------------------------------
A|-6-6666-6-6666-6-6666------9(12x)-6-6666-6-6666-6-6666-7(24x)
E|---------------------7(12x)----------------------------------

Refrão 1 - 2x:
“Mary, if you want to...”
G|------------------------------------------------------
D|------------------------------------------------------
A|------------------------------------------------------
E|--7-77-77-77-77-77-77-77-70-00-00-00-02-22-22-22------

0 comentários

    mostrar mais comentários

    Conseguiu tocar?

    1tocaram0ainda não

    Grave um vídeo tocando Mary e mande pra gente!

    00:00 / 00:00
    outros vídeos desta música
    repetirqualidadeautomática
    Outro vídeos desta música
      00:00 / 00:00
      automática
      OK