Cifra Club

Aprenda

Lonely World

Limp Bizkit

Tab de baixo: Principal
Tabbed By : Matt
e-mail: *


G|-------------6-6-------6-6---------6-6---------6-6----------------------|
D|------------------------------------------------------------------------|
A|-----444444---44444444---44444444----4444444------44/7------------------|
E|------------------------------------------------------------------------|

G|--------9-9-------9-9-----1111111--9-9-9---------4-4-------4-4---------------|
D|-----------------------------------------------------------------------------|
A|---7777-----77777----777-----------------2222222----222222-------------------|
E|-----------------------------------------------------------------------------|

G|--------4-4------4-4---------11-11------11-11--141414131313------------------|
D|-----------------------------------------------------------------------------|
A|--22222----22222----22/9999------99999---------------------------------------|
E|-----------------------------------------------------------------------------|
Play X4

G|-----------------------------------------------------------------------------|
D|-----------------------------------------------------------------------------|
A|--444444444444444444-222222222222222222-------------------2222222222---------|
E|--------------------------------------------555555555555555------------------|

G|-------------6-6-------6-6---------6-6---------6-6----------------------|
D|------------------------------------------------------------------------|
A|-----444444---44444444---44444444----4444444------44/7------------------|
E|------------------------------------------------------------------------|

G|--------9-9-------9-9-----1111111--9-9-9---------4-4-------4-4---------------|
D|-----------------------------------------------------------------------------|
A|---7777-----77777----777-----------------2222222----222222-------------------|
E|-----------------------------------------------------------------------------|

G|--------4-4------4-4---------11-11------11-11--141414131313------------------|
D|-----------------------------------------------------------------------------|
A|--22222----22222----22/9999------99999---------------------------------------|
E|-----------------------------------------------------------------------------|
Play X3


G|-----------------------------------------------------------------------------|
D|-----------------------------------------------------------------------------|
A|--444444444444444444-222222222222222222-------------------2222222222---------|
E|--------------------------------------------555555555555555------------------|

G|-------------6-6-------6-6---------6-6---------6-6----------------------|
D|------------------------------------------------------------------------|
A|-----444444---44444444---44444444----4444444------44/7------------------|
E|------------------------------------------------------------------------|

G|--------9-9-------9-9-----1111111--9-9-9---------4-4-------4-4---------------|
D|-----------------------------------------------------------------------------|
A|---7777-----77777----777-----------------2222222----222222-------------------|
E|-----------------------------------------------------------------------------|

G|--------4-4------4-4---------11-11------11-11--141414131313------------------|
D|-----------------------------------------------------------------------------|
A|--22222----22222----22/9999------99999---------------------------------------|
E|-----------------------------------------------------------------------------|
Play X2

G|-----------------------------------------------------------------------------|
D|-----------------------------------------------------------------------------|
A|--444444444444444444-222222222222222222-------------------2222222222---------|
E|--------------------------------------------555555555555555------------------|

G|-------------6-6-------6-6---------6-6---------6-6----------------------|
D|------------------------------------------------------------------------|
A|-----444444---44444444---44444444----4444444------44/7------------------|
E|------------------------------------------------------------------------|

G|--------9-9-------9-9-------9-9-----9-9-----------4-4-------4-4--------------|
D|-----------------------------------------------------------------------------|
A|---7777-----77777----77777----7777-------2222222----222222-------------------|
E|-----------------------------------------------------------------------------|

G|--------4-4------4-4---------11-11------11-11--141414131313------------------|
D|-----------------------------------------------------------------------------|
A|--22222----22222----22/9999------99999---------------------------------------|
E|-----------------------------------------------------------------------------|

G|-------------6-6-------6-6---------6-6---------6-6----------------------|
D|------------------------------------------------------------------------|
A|-----444444---44444444---44444444----4444444------44/7------------------|
E|------------------------------------------------------------------------|

G|--------9-9-------9-9-----1111111--9-9-9---------4-4-------4-4---------------|
D|-----------------------------------------------------------------------------|
A|---7777-----77777----777-----------------2222222----222222-------------------|
E|-----------------------------------------------------------------------------|

G|--------4-4------4-4---------11-11------11-11--141414131313------------------|
D|--------------------------------------------------------------11~------------|
A|--22222----22222----22/9999------99999---------------------------------------|
E|-----------------------------------------------------------------------------|


| /  slide up
| \  slide down
| h  hammer-on
| p  pull-off
| ~  vibrato
| +  harmonic
| x  Mute note
===============================================================================
Composição de Fred Durst
1.434 exibições

0 comentários

Ver todos os comentários

Conseguiu tocar?

1 Tocaram 0 Ainda não

Grave um vídeo tocando Lonely World e nos envie!

00:00 / 00:00
outros vídeos desta música
repetir qualidade Automático
Outros vídeos desta música
00:00 / 00:00
Automático

Cifra Club Pro

Aproveite o Cifra Club com benefícios exclusivos e sem anúncios
Cifra Club Pro
Aproveite o Cifra Club com benefícios exclusivos e sem anúncios
OK