Cifra Club

Cara Estranho

Los Hermanos

Tab de baixo: Versão 3
Essa versão é na afinação padrao E A D G



intro 2x
G------------------------------|
D------------------------------|
A---------------3h5-55-3h5-3h5-|
E-3(4x)-1h3-1h3----------------|

"olha só que cara..."                                 (esse trecho duas vezes)
G-----------------------------------------------------------------------------------------|
D----------------------------------------------------3(8x)--------------------------------|
A--------------5555-3h5-3h5--------------2(8x)-3(8x)--------------------5555-3h5-3h5------|
E-3333-1h3-1h3--------------3333-1h3-1h3-------------------3333-1h3-1h3-------------------|

"tem tudo sobre suas mãos..."
G-----------------------------------------------------------------|
D-2(8x)-1(8x)-------------------3(8x)-----------------------------|
A-------------1(8x)-2(8x)-3(8x)---------------------5555-3h5-3h5--|
E--------------------------------------3333-1h3-1h3---------------|


"olha ali quem ta pedindo..."                                                      2x
G-----------------------------------------------------------------------------------------|
D----------------------------------------------------3(8x)--------------------------------|
A--------------5555-3h5-3h5--------------2(8x)-3(8x)--------------------5555-3h5-3h5------|
E-3333-1h3-1h3--------------3333-1h3-1h3-------------------3333-1h3-1h3-------------------|


"talvez se nunca mais tentar..."
G----------------------------------------------------|
D-2(8x)-1(8x)-------------------3(8x)----------------|
A-------------1(8x)-2(8x)-3(8x)---------------5(8x)--|
E--------------------------------------3(8x)---------|


no solo repete a introdução 4x


"faz parte desse jogo..."
G---------------------------------------------------|
D--------\9(14x)-88-6(16x)--------------------------|
A-6(14x)-------------------3-1-3~-3-1-3-5-6-5-3-1---|
E---------------------------------------------------|

"é simples desse jeito..."
G------------------------------|
D-3(16x)-----------------------|
A--------2(16x)-6(16x)---------|
E----------------------4(16x)--|

"é a solução de quem não quer..."
G------------------------------------------------------------------|
D--------------------------------------------------3h5-55-3h5-3h5--|
A-------11-11-------11-11-------------3333-1h3-1h3-----------------|
E-11-11-------11-11-------44-44-33-33------------------------------|


parte instrumental                3x                                                         3x
G-----------------------------------|----------------------|-----------------------------------|
D----------------3h5-55-3h5-3h5-----|----------------------|-------------10-88-----------------|
A-1h3-33-1h3-1h3--------------------|-1h3-33-1h3-1h3-7(8x)-|-88-10-11-11-------11-11-10-11-11--|
E-----------------------------------|----------------------|-----------------------------------|

                                  3x
G-----------------------------------|-------|
D----------------3h5-55-3h5-3h5-----|-------|
A-1h3-33-1h3-1h3--------------------|-3~----|
E-----------------------------------|-------|
00:00 / 00:00
Outros vídeos desta música
Repetir
Outros vídeos desta música
Composição de Marcelo Camelo
Colaboração e revisão:
  • Diego Morales
3.324 exibições

0 comentários

Ver todos os comentários

Entre para oCifra Club PRO

Tenha acesso a benefícios exclusivos no App e no Site

  • Chega de anúncios

  • Prioridade de compra em lançamentos

  • Mais recursos no app do Afinador

  • Atendimento Prioritário

  • Descontos nos produtos Cifra Club

  • Ajude a produzir mais conteúdo

00:00 / 00:00

Cifra Club Pro

Aproveite o Cifra Club com benefícios exclusivos e sem anúncios
Cifra Club Pro
Aproveite o Cifra Club com benefícios exclusivos e sem anúncios
OK