Enviar cifraEntrar

Hoje O Céu Abriu

Nx Zero

Tab de baixo: Principal
exibições 2.117
NX Zero - Hoje o Céu Abriu LINHA DE BAIXO 

AFINAÇÃO: É meio tom abaixo do padrão!

FICARÁ: Eb – Ab – Db – Gb

INTRO:

O Baixo entra no 0:08 segundos da música!

Gb|--------------------------------------------------------------------------------|
Db|-------7------------------------------------------------------------------------|
Ab|-/55555-5-3-------------------------------55-x-5-x-5-5-55-x-5-x-5\--------------|
Eb|-----------55-x-5-x-5-x-5\33-x-3-x-3-x-3/5------------5-------------------------|

Gb|---------------------------------------------------------|
Db|---------------------------------------------------------|
Ab|--------------------------------55-x-5-x-5-5-55-x-5-x-5\-|
Eb|-55-x-5-x-5-x-5\33-x-3-x-3-x-3/5------------5------------|

0:29 segundos da música – “ Andei até abrir uma porta.. ♪ “

Gb|------------------------------7-7/9\----7-7/9\-|
Db|-----7-7/9\-----5-5/7-5--5---7---------7-------|
Ab|----7----------5----------3-5-------3/5--------|
Eb|-3/5--------1/3--------------------------------|

0:38 segundos da música – “ Todo dia peço pra Deus abençoar.. ♪ “

Gb|------------------------------7-7/9\----7-7/9\-------|
Db|-----7-7/9\-----5-5/7-5--5---7---------7-------------|
Ab|----7----------5----------3-5-------3/5--------x\7---|
Eb|-3/5--------1/3----------------------------------x\8-|

0:48 segundos da música – “ Tenho que ser guerreiro.. ♪ “

Gb|------------------------------7-7/9\----7-7/9\-|
Db|-----7-7/9\-----5-5/7-5--5---7---------7-------|
Ab|----7----------5----------3-5-------3/5--------|
Eb|-3/5--------1/3--------------------------------|

0:57 segundos da música – “ Eu to de pé .. ♪ “

Gb|------------------------------7-7/9\----7-7/9\-------|
Db|-----7-7/9\-----5-5/7-5--5---7---------7-------------|
Ab|----7----------5----------3-5-------3/5--------x\7---|
Eb|-3/5--------1/3----------------------------------x\8-|

1:06 segundos da música –  Refrão “ Hoje o céu abriu .. ♪ “

Gb|-----------------------------------------------------|
Db|-----------------------------------------------------|
Ab|--------------------------------55-x-5-x-5-----------|
Eb|-55-x-5-x-5-x-5\33-x-3-x-3-x-3/5----------5\11--11-3-| continuação abaixo!

1:17 segundos da música –  “O tempo até parou.. ♪ “

Gb|---------------------------------------------------5-4h5p4----|
Db|------------------------------------------------3/5-------5---|
Ab|--------------------------------55-x-5-x-5-----------------5\-|
Eb|-55-x-5-x-5-x-5\33-x-3-x-3-x-3/5----------5\11----------------|

1:25 segundos da música –  “wOoooh . ♪ “

Gb|---------------------------------------------------------|
Db|---------------------------------------------------------|
Ab|--------------------------------55-x-5-x-5-5-55-x-5-x-5\-|
Eb|-55-x-5-x-5-x-5\33-x-3-x-3-x-3/5------------5------------| 2 VEZES

1:44 segundos da música –  “Então feche os olhos e escute a voz.. ♪ “

Gb|------------------------------7-7/9\----7-7/9\-|
Db|-----7-7/9\-----5-5/7-5--5---7---------7-------|
Ab|----7----------5----------3-5-------3/5--------|
Eb|-3/5--------1/3--------------------------------|

1:53 segundos da música –  “Parei.. ♪ “

Gb|------------------------------7-7/9\----7-7/9\-------|
Db|-----7-7/9\-----5-5/7-5--5---7---------7-------------|
Ab|----7----------5----------3-5-------3/5--------x\7---|
Eb|-3/5--------1/3----------------------------------x\8-|

2:03 segundos da música –  “Tenho que ser guerreiro.. ♪ “

Gb|------3h7----------------------------------|
Db|-----7---\7-2-4-55-------5------44---------|
Ab|----7---------------5----------4-----------|
Eb|-3/5------------------3---3-22----2-11-1-3-|


Segue abaixo \/


2:13 segundos da música –  “Eu to de pé.. ♪ “

Gb|-------------------------------------------5-4h5p4--------|
Db|---------------------5--7-5-4444-4------3/5-------5-------|
Ab|------------------5/7------------------------------5\-----|
Eb|-5-5-5-5--5\-3-3-3----------------5\1-1-------------------|

2:22 segundos da música –  Refrão “ Hoje o céu abriu .. ♪ “

Gb|-----------------------------------------------------|
Db|-----------------------------------------------------|
Ab|--------------------------------55-x-5-x-5-----------|
Eb|-55-x-5-x-5-x-5\33-x-3-x-3-x-3/5----------5\11--11-3-|

2:31 segundos da música –  “O tempo até parou.. ♪ “

Gb|---------------------------------------------------5-4h5p4----|
Db|------------------------------------------------3/5-------5---|
Ab|--------------------------------55-x-5-x-5-----------------5\-|
Eb|-55-x-5-x-5-x-5\33-x-3-x-3-x-3/5----------5\11----------------|

2:41 segundos da música –  “Quem derá esse momento.. ♪ “

Gb|------3h7----------------------------------|
Db|-----7---\7-2-4-55-------5------44---------|
Ab|----7---------------5----------4-----------|
Eb|-3/5------------------3---3-22----2-11-1-3-|

2:50 segundos da música –  “Mais hoje o céu abriu.. ♪ “

Gb|------------------------------------------|
Db|------------------------------------------|
Ab|---------------------------55\-55\-5(6x)--|
Eb|-5-5-5-5-5\33-x-3-x-3-x-3/5---------------|

2:58 segundos da música –  “Mais hoje o céu abriu.. ♪ “

Gb|----------------------------------|
Db|----------------------------------|
Ab|----------------------------------|
Eb|-0-0—1(8x)-3(8x)-3h5-555-3-3-(4x)-|

3:09 segundos da música –  “O seu sorriso .. ♪ “

Gb|--------------------------------------------------------|
Db|----------------------7------5-------------7------5-----|
Ab|-----------------0-3-5--0-3-5--7-5-3--0-3-5--0-3-5--7-5-|
Eb|-1(8x)-3(5x)-/\-----------------------------------------|

3:18 segundos da música –  “ A cada diaaa .. ♪ “ FINAL DA MÚSICA

Gb|---------------------------------------(7)-|(7) Harmônico
Db|----------------------12-12-------12—(7)---|(7) Harmônico
Ab|-3/8(8x)-10(8x)-12-10-------12-10----------|
Eb|-------------------------------------------|
  • 1
  • 2
  • 3
  • 4
  • 5
  • 6
  • 7
  • 8
  • 9
  • 10
  • 11
  • 12
    Colaboração e revisão:
    • rafael alan

    0 comentários

      mostrar mais comentários

      Conseguiu tocar?

      0tocaram0ainda não

      Grave um vídeo tocando Hoje O Céu Abriu e mande pra gente!

      00:00 / 00:00
      outros vídeos desta música
      repetirqualidadeautomática
      • automática
      Outro vídeos desta música
        00:00 / 00:00
        automática
        • automática
        Acordes para:violão e guitarra
        dificuldadeexibiçõescontribuições
        1 versão de Tab de baixoexibiçõescontribuições
        1 versão de Guitar Proformatodownloadscontribuição
        fecharplay/pause subir/descer velocidade
        fechar
        OK